Guitar Tabs, Chords and Lyrics
Server problems seems to be fixed. Chordie has been experiencing problems with songs disappearing. These issues now seems to be fixed, but still verifying the fix. If you find anything strange, please email admin@chordie.com.


How Do We Know   The Living End

 
 E-------------------------------------------|
 B----3--3--3--3-------3--3--3--3------------|
 G----------------------------------4b-2r-0--|
 D-------------------------------------------|
 A-------------------------------------------|
 E-0---------------0-------------------------|

 


 [-]  

 
 G-------------------------------------------|
 D-------------------------------------------|
 A-------------------------------------------|
 E-------------------------------------------|
 E--------------------------------------0----|
 B---3--3--3--3------3--3--3--3--------------|
 G---------------------------------2b-4------|
 D-------------------------------------------|
 A-------------------------------------------|
 E-0--------------0--------------------------|

 


 [-]  

 
 G-------------------------------------------|
 D-------------------------------------------|
 A-------------------------------------------|
 E-------------------------------------------|
 E-------------------------------------------|
 B----3--3--3--3-------3--3--3--3------------|
 G----------------------------------4b-2r-0--|
 D-------------------------------------------|
 A-------------------------------------------|
 E-0---------------0-------------------------|

 


 [-]  

 
 G-------------------------------------------|
 D-------------------------------------------|
 A-------------------------------------------|
 E-------------------------------------------|
 E-----------0-------------------------------|
 B--------0-----3----------------------------|
 G--2b4------------4b2-0-------2----0--------|
 D--------------------------2----2-----------|
 A-------------------------------------------|
 E-------------------------------------------|
 G-------------------------------------------|
 D-------------------------------------------|
 A-------------------------------------------|
 E-------------------------------------------|
 E-------------------------------------------|
 B----3--3--3--3-------3--3--3--3------------|
 G----------------------------------4b-2r-0--|
 D-------------------------------------------|
 A-------------------------------------------|
 E-0---------------0-------------------------|

 


 [-]  

 
 G-------------------------------------------|
 D-------------------------------------------|
 A-------------------------------------------|
 E-0---------------0-------------------------|
 E--------------------------------------0----|
 B---3--3--3--3------3--3--3--3--------------|
 G---------------------------------2b-4------|
 D-------------------------------------------|
 A-------------------------------------------|
 E-0--------------0--------------------------|

 


 [-]  

 
 G-------------------------------------------|
 D-------------------------------------------|
 A-------------------------------------------|
 E-0--------------0--------------------------|
 E-------------------------------------------|
 B----3--3--3--3-------3--3--3--3------------|
 G----------------------------------4b-2r-0--|
 D-------------------------------------------|
 A-------------------------------------------|
 E-0---------------0-------------------------|

 


 [-]  

 
 G-------------------------------------------|
 D-------------------------------------------|
 A-------------------------------------------|
 E-0---------------0-------------------------|
 E--3p0------------------0---------------------------------|
 B--------3p0-3p0-3b5----------3-0-----------3-0-----------|
 G-----------------------------------2-0-----------2-0-----|
 D------------------------------------------------------2s-|
 A---------------------------------------------------------|
 E---------------------------------------------------------|

 


 [-]  

 
 G---------------------------------------------------------|
 D---------------------------------------------------------|
 A---------------------------------------------------------|
 E---------------------------------------------------------|

 


 


 


 


 


 VERSE:


 

 
 E-------------------------3----|
 B-------------------------3----|
 G-------------------------0----|
 D---------55555-----------0----| x 3
 A---7-5-7-------7-5-------2----|
 E-0-----------------7-5-0-3----|

 


 [-]  

 
 G------------------------------|
 D---------5--5-----------------| x 3
 A---7-5-7-------7-5------------|
 E-0-----------------7-5-0-3----|
 E-----------------------------------------|
 B-----------------------------------------|
 G-------------7-7-7-7-7-7-9---------------|
 D---------5---7-7-7-7-7-7-9---------------|
 A---7-5-7---7-5-5-5-5-5-5-7---------------|
 E-0---------------------------------------|

 


 [-]  

 
 G-----------------------------------------|
 D---------5-------------------------------|
 A---7-5-7---5---5-5-5-5-5-7---------------|
 E-0---------------------------------------|

 


 


 REPETE 3 TIMES


 


 PRE-CHORUS:


 


 

 
 E-0-0-0-0-0-0-0-0-0-0-0-0-0-0-0-0---|
 B-1-1-1-1-1-1-1-1-1-1-1-1-1-1-1-1---|
 G-2-2-2-2-2-2-2-2-2-2-2-2-2-2-2-2---|
 D-2-2-2-2-2-2-2-2-2-2-2-2-2-2-2-2---|
 A-0-0-0-0-0-0-0-0-0-0-0-0-0-0-0-0---|
 E-0-0-0-0-0-0-0-0-0-0-0-0-0-0-0-0---|

 


 [-]  

 
 G-----------------------------------|
 D-----------------------------------|
 A-0---0----0-0-0---0---0---0-0-0----|
 E---------3-----3---------3-----3---|
 E-------------------------3----|
 B-------------------------3----|
 G-------------------------0----|
 D---------55555-----------0----| x 2
 A---7-5-7-------7-5-------2----|
 E-0-----------------7-5-0-3----|

 


 [-]  

 
 G------------------------------|
 D---------5--5-----------------| x 2
 A---7-5-7-------7-5------------|
 E-0-----------------7-5-0-3----|
 E-0-0-0-0-0-0-0-0-0-0-0-0-0-0-0-0---|
 B-1-1-1-1-1-1-1-1-1-1-1-1-1-1-1-1---|
 G-2-2-2-2-2-2-2-2-2-2-2-2-2-2-2-2---|
 D-2-2-2-2-2-2-2-2-2-2-2-2-2-2-2-2---|
 A-0-0-0-0-0-0-0-0-0-0-0-0-0-0-0-0---|
 E-0-0-0-0-0-0-0-0-0-0-0-0-0-0-0-0---|

 


 [-]  

 
 G-----------------------------------|
 D-----------------------------------|
 A-0---0----0-0-0---0---0---0-0-0----|
 E---------3-----3---------3-----3---|
 E-3-3-3-3--------------------|
 B-3-3-3-3----4444--4444--4---|
 G-0-0-0-0--------------------|
 D-0-0-0-0--------------------|
 A-2-2-2-2--2-----2-----2-----|
 E-3-3-3-3--------------------|

 


 [-]  

 
 G----------------------------|
 D----------------------------|
 A----------------------------|
 E-3-3-3-3--7-----7-----------|

 


 


 CHORUS


 

 
 E-----------------------------------------------------|
 B-----------------------------------------------------|
 G---9-9-9---9-9-9---9----11-11-11---11-11-11---11-----|
 D---x-x-x---x-x-x---x----x--x--x----x--x--x----x------|
 A---7-7-7---7-7-7---7----9--9--9----9--9--9----9------|
 E-0--------0-------0----0---------0----------0--------|

 


 [-]  

 
 G-----------------------------------------------------|
 D-----------------------------------------------------|
 A---7-7-7---7-7-7---7----5--5--5-----5--5--5----5-----|
 E-0--------0-------0----0----------0----------0-------|
 E--------------------------------------------------------------|
 B--------------------------------------------------------------|
 G---12-12-12----12-12-12----12-----14-14-14----14-14-14----14--|
 D---x--x--x-----x--x--x-----x------x--x--x-----x--x--x-----x---|
 A---10-10-10----10-10-10----10-----12-12-12----12-12-12----12--|
 E-0-----------0-----------0------0-----------0-----------0-----| 

 


 [-]  

 
 G--------------------------------------------------------------|
 D--------------------------------------------------------------|
 A---7--7--7------7--7--7----7-------5--5--5-----5--5--5-----5--|
 E-0-----------0-----------0------0-----------0-----------0-----|

 


 


 REPEAT CHORUS


 


 


 Post Chorus


 


 

 
 E--------------|
 B--------------|
 G--9-9---9-9---|
 D--9-9---9-9---|
 A--7-7---7-7---|
 E--------------|

 


 [-]  

 
 G--------------|
 D--------------|
 A--------------|
 E--0-0---0-0---|

 


 


 Verse:


 

 
 E-------------------------3----|
 B-------------------------3----|
 G-------------------------0----|
 D---------55555-----------0----| x 3
 A---7-5-7-------7-5-------2----|
 E-0-----------------7-5-0-3----|

 


 [-]  

 
 G------------------------------|
 D---------5--5-----------------| x 3
 A---7-5-7-------7-5------------|
 E-0-----------------7-5-0-3----|
 E-----------------------------------------|
 B-----------------------------------------|
 G-------------7-7-7-7-7-7-9---------------|
 D---------5---7-7-7-7-7-7-9---------------|
 A---7-5-7---7-5-5-5-5-5-5-7---------------|
 E-0---------------------------------------| 

 


 [-]  

 
 G-----------------------------------------|
 D---------5-------------------------------|
 A---7-5-7---5---5-5-5-5-5-7---------------|
 E-0---------------------------------------|

 


 REPEAT


 


 Pre Chorus:


 

 
 E-0-0-0-0-0-0-0-0-0-0-0-0-0-0-0-0---|
 B-1-1-1-1-1-1-1-1-1-1-1-1-1-1-1-1---|
 G-2-2-2-2-2-2-2-2-2-2-2-2-2-2-2-2---|
 D-2-2-2-2-2-2-2-2-2-2-2-2-2-2-2-2---|
 A-0-0-0-0-0-0-0-0-0-0-0-0-0-0-0-0---|
 E-0-0-0-0-0-0-0-0-0-0-0-0-0-0-0-0---|

 


 [-]  

 
 G-----------------------------------|
 D-----------------------------------|
 A-0---0----0-0-0---0---0---0-0-0----|
 E---------3-----3---------3-----3---|
 E-------------------------3----|
 B-------------------------3----|
 G-------------------------0----|
 D---------55555-----------0----| x 2
 A---7-5-7-------7-5-------2----|
 E-0-----------------7-5-0-3----|

 


 [-]  

 
 G------------------------------|
 D---------5--5-----------------| x 2
 A---7-5-7-------7-5------------|
 E-0-----------------7-5-0-3----|
 E-0-0-0-0-0-0-0-0-0-0-0-0-0-0-0-0---|
 B-1-1-1-1-1-1-1-1-1-1-1-1-1-1-1-1---|
 G-2-2-2-2-2-2-2-2-2-2-2-2-2-2-2-2---|
 D-2-2-2-2-2-2-2-2-2-2-2-2-2-2-2-2---|
 A-0-0-0-0-0-0-0-0-0-0-0-0-0-0-0-0---|
 E-0-0-0-0-0-0-0-0-0-0-0-0-0-0-0-0---|

 


 [-]  

 
 G-----------------------------------|
 D-----------------------------------|
 A-0---0----0-0-0---0---0---0-0-0----|
 E---------3-----3---------3-----3---|
 E-3-3-3-3--------------------|
 B-3-3-3-3----4444--4444--4---|
 G-0-0-0-0--------------------|
 D-0-0-0-0--------------------|
 A-2-2-2-2--2-----2-----2-----|
 E-3-3-3-3--------------------|

 


 [-]  

 
 G----------------------------|
 D----------------------------|
 A----------------------------|
 E-3-3-3-3--7-----7-----------|

 


 


 Chorus:


 

 
 E-----------------------------------------------------|
 B-----------------------------------------------------|
 G---9-9-9---9-9-9---9----11-11-11---11-11-11---11-----|
 D---x-x-x---x-x-x---x----x--x--x----x--x--x----x------|
 A---7-7-7---7-7-7---7----9--9--9----9--9--9----9------|
 E-0--------0-------0----0---------0----------0--------|

 


 [-]  

 
 G-----------------------------------------------------|
 D-----------------------------------------------------|
 A---7-7-7---7-7-7---7----5--5--5----5--5--5-----5-----|
 E-0--------0-------0----0---------0----------0--------|
 E--------------------------------------------------------------|
 B--------------------------------------------------------------|
 G---12-12-12----12-12-12----12-----14-14-14----14-14-14----14--|
 D---x--x--x-----x--x--x-----x------x--x--x-----x--x--x-----x---|
 A---10-10-10----10-10-10----10-----12-12-12----12-12-12----12--|
 E-0-----------0-----------0------0-----------0-----------0-----| 

 


 [-]  

 
 G--------------------------------------------------------------|
 D--------------------------------------------------------------|
 A---7--7--7-----7--7--7----7-------5--5--5-----5--5--5-----5---|
 E-0-----------0-----------0------0-----------0-----------0-----|

 


 REPEAT CHORUS


 


 Bridge:


 

 
 E-----------------0--0--0--0------------------0~--|
 B-----------------0--0--0--0------------------0~--|
 G-5-5-5-5-5-5-5-5-0--0--0--0-5-5-5-5-5-5-5-5--0~--|
 D-5-5-5-5-5-5-5-5-2--2--2--2-5-5-5-5-5-5-5-5--2~--|
 A-3-3-3-3-3-3-3-3-2--2--2--2-3-3-3-3-3-3-3-3--2~--|
 E-----------------0--0--0--0------------------0~--|

 


 [-]  

 
 G-------------------------------------------------|
 D-------------------------------------------------|
 A-3-3-3-3-3-3-3-3------------3-3-3-3-3-3-3-3------|
 E-----------------0--0--0--0------------------0---|

 


 


 Pre Solo:


 


 

 
 E-------------------------------------------|
 B----3--3--3--3-------3--3--3--3------------|
 G----------------------------------4b-2r-0--|
 D-------------------------------------------|
 A-------------------------------------------|
 E-0---------------0-------------------------|

 


 [-]  

 
 G-------------------------------------------|
 D-------------------------------------------|
 A-------------------------------------------|
 E-0---------------0-------------------------|
 E--------------------------------------0----|
 B---3--3--3--3------3--3--3--3--------------|
 G---------------------------------2b-4------|
 D-------------------------------------------|
 A-------------------------------------------|
 E-0--------------0--------------------------|

 


 [-]  

 
 G-------------------------------------------|
 D-------------------------------------------|
 A-------------------------------------------|
 E-0--------------0--------------------------|
 E-------------------------------------------|
 B----3--3--3--3-------3--3--3--3------------|
 G----------------------------------4b-2r-0--|
 D-------------------------------------------|
 A-------------------------------------------|
 E-0---------------0-------------------------|

 


 [-]  

 
 G-------------------------------------------|
 D-------------------------------------------|
 A-------------------------------------------|
 E-0---------------0-------------------------|
 E-3b5--3b5-0---------------0----------------------------|
 B------------3p0-3b5----------3p0---------0--3p0--------|
 G----------------------------------2b4-------------2p0--|
 D-------------------------------------------------------|
 A-------------------------------------------------------|
 E-------------------------------------------------------|

 


 [-]  

 
 G--------------------------------------------------------|
 D--------------------------------------------------------|
 A--------------------------------------------------------|
 E-0------------------------------------------------------|
 E-------------------------------------------|
 B----3--3--3--3-------3--3--3--3------------|
 G----------------------------------4b-2r-0--|
 D-------------------------------------------|
 A-------------------------------------------|
 E-0---------------0-------------------------|

 


 [-]  

 
 G-------------------------------------------|
 D-------------------------------------------|
 A-------------------------------------------|
 E-0---------------0-------------------------|
 E--------------------------------------0----|
 B---3--3--3--3------3--3--3--3--------------|
 G---------------------------------2b-4------|
 D-------------------------------------------|
 A-------------------------------------------|
 E-0--------------0--------------------------|

 


 [-]  

 
 G-------------------------------------------|
 D-------------------------------------------|
 A-------------------------------------------|
 E-0--------------0--------------------------|
 E-------------------------------------------|
 B----3--3--3--3-------3--3--3--3------------|
 G----------------------------------4b-2r-0--|
 D-------------------------------------------|
 A-------------------------------------------|
 E-0---------------0-------------------------|

 


 [-]  

 
 G-------------------------------------------|
 D-------------------------------------------|
 A-------------------------------------------|
 E-0---------------0-------------------------|
 E-------------------------------------------------------|
 B--14-14-14-14b-14b-14b-14b-14b-14b-14b-14b-14b-14b~~---|
 G--14-14-14-14b-14b-14b-14b-14b-14b-14b-14b-14b-14b~~---|
 D-------------------------------------------------------|
 A-------------------------------------------------------|
 E-------------------------------------------------------|

 


 Bar the G and B strings with 4th finger and pull down.


 


 

 
 G-------------------------------------------------------|
 D-------------------------------------------------------|
 A-------------------------------------------------------|
 E-------------------------------------------------------|

 


 


 Verse Riff:


 

 
 E-------------------------3----|
 B-------------------------3----|
 G-------------------------0----|
 D---------55555-----------0----| x 3
 A---7-5-7-------7-5-------2----|
 E-0-----------------7-5-0-3----|

 


 [-]  

 
 G------------------------------|
 D---------5--5-----------------| x 3
 A---7-5-7-------7-5------------|
 E-0-----------------7-5-0-3----|
 E-----------------------------------------|
 B-----------------------------------------|
 G-------------7-7-7-7-7-7-7---------------|
 D---------5---7-7-7-7-7-7-7---------------|
 A---7-5-7---7-5-5-5-5-5-5-5---------------|
 E-0---------------------------------------|

 


 [-]  

 
 G-----------------------------------------|
 D---------5-------------------------------|
 A---7-5-7---5---5-5-5-5-5-7---------------|
 E-0---------------------------------------|

 


 


 Solo:


 

 
 E----------------------------------------------------------------------------------|
 B------------131313------------------13p12----12-13--15b17-b17-b17-b17-b17r15------|
 G---14p12h14--------14p12----12-14---------14--------------------------------14----|
 D-------------------------14-------------------------------------------------------|
 A-0--------------------------------------------------------------------------------|
 E----------------------------------------------------------------------------------|

 


 [-]  

 
 G-------------------------------------------------------------------------|
 D-------------------------------------------------------------------------|
 A-0-------0---------0---0---0--------0------0------------0---0---0--------|
 E----------------0-------------0-----------------------0---------------0--|
 E------------------------|
 B------------------------|
 G-----4s5s4--------------|
 D---------------9s10s9---|
 A--2---------------------|
 E-----------7-7----------|

 


 [-]  

 
 G------------------------|
 D------------------------|
 A--2--2------2--2---2----|
 E---------0-----------0--|
 E---------------------------------11--12~~~~~---|
 B-------7-7-7-7---10-10-10-10--s12--------------|
 G---------------8~------------------------------|
 D---9-------------------------------------------|
 A-----------------------------------------------|
 E-----------------------------------------------|

 


 The last note of this bar continues on as feedback into the chorus


 


 

 
 G-----------------------------------------------|
 D-----------------------------------------------|
 A---------------------------------2--2---2-2----|
 E-----------------------------------------------|

 


 


 Chorus:


 

 
 E-----------------------------------------------------|
 B-----------------------------------------------------|
 G---9-9-9---9-9-9---9----11-11-11---11-11-11---11-----|
 D---x-x-x---x-x-x---x----x--x--x----x--x--x----x------|
 A---7-7-7---7-7-7---7----9--9--9----9--9--9----9------|
 E-0--------0-------0----0---------0----------0--------|

 


 [-]  

 
 G-----------------------------------------------------|
 D-----------------------------------------------------|
 A---7-7-7---7-7-7---7----5--5--5----5--5--5-----5-----|
 E-0--------0-------0----0---------0----------0--------|
 E--------------------------------------------------------------|
 B--------------------------------------------------------------|
 G---12-12-12----12-12-12----12-----14-14-14----14-14-14----14--|
 D---x--x--x-----x--x--x-----x------x--x--x-----x--x--x-----x---|
 A---10-10-10----10-10-10----10-----12-12-12----12-12-12----12--|
 E-0-----------0-----------0------0-----------0-----------0-----| 

 


 [-]  

 
 G--------------------------------------------------------------|
 D--------------------------------------------------------------|
 A---7--7--7-----7--7--7----7-------5--5--5-----5--5--5-----5---|
 E-0-----------0-----------0------0-----------0-----------0-----|

 


 REPEAT CHORUS


 


 Bridge:


 

 
 E-----------------0--0--0--0----------------|
 B-----------------0--0--0--0----------------|
 G-5-5-5-5-5-5-5-5-0--0--0--0-5-5-5-5--7--4--|
 D-5-5-5-5-5-5-5-5-2--2--2--2-5-5-5-5--7--4--|
 A-3-3-3-3-3-3-3-3-2--2--2--2-3-3-3-3--5--2--|
 E-----------------0--0--0--0----------------|

 


 [-]  

 
 G-------------------------------------------|
 D-------------------------------------------|
 A-3-3-3-3-3-3-3-3------------3-3-3-3--5--4--|
 E-----------------0--0--0--0----------------|

 


 


 Intro Riff:


 

 
 E-------------------------------------------|
 B----3--3--3--3-------3?-3--3--3------------|
 G----------------------------------4b-2r-0--|
 D-------------------------------------------|
 A-------------------------------------------|
 E-0---------------0-------------------------|

 


 [-]  

 
 G-------------------------------------------|
 D-------------------------------------------|
 A-------------------------------------------|
 E-0---------------0-------------------------|
 E--------------------------------------0----|
 B---3--3--3--3------3--3--3--3--------------|
 G---------------------------------2b-4------|
 D-------------------------------------------|
 A-------------------------------------------|
 E-0--------------0--------------------------|

 


 [-]  

 
 G-------------------------------------------|
 D-------------------------------------------|
 A-------------------------------------------|
 E-0--------------0--------------------------|
 E-------------------------------------------|
 B----3--3--3--3-------3--3--3--3------------|
 G----------------------------------4b-2r-0--|
 D-------------------------------------------|
 A-------------------------------------------|
 E-0---------------0-------------------------|

 


 [-]  

 
 G-------------------------------------------|
 D-------------------------------------------|
 A-------------------------------------------|
 E-0---------------0-------------------------|


Important: The song above is NOT stored on the Chordie server. The original song is hosted at www.guitaretab.com. Chordie works as a search engine and provides on-the-fly formatting. Chordie does not index songs against artists'/composers' will. To remove this song please click here.

This song is displayed as text-only. Transposing and tuning is only available for chordpro-songs.
Rate #1 of 2 versions

Login - add to songbook

SHARE PAGE  



You need to log in to post comments