Guitar Tabs, Chords and Lyrics
Major upgrade!! After one year development the new version of Chordie is now online! Please give feedback.


Staring at the Light  The Living End

-THE LIVING END-
Staring At The Light
Tabbed By Michael Fryar
manumick20@yahoo.com
My ICQ number is 67053832
()=harmonic
s=slide
x=dead note
Intro/First Verse:
[D#] [A#] [B]  
 
 e------------------------------------|
 b------------------------------------|
 g-----8---------8--------8-------8---|
 d---8---8-----8---8----8---8---8---8-|(x4)
 a-6---------8--------9-------9-------|
 e------------------------------------|

/ p a l m m ut e d..............\
[B]  
 
 e-------------------------------|
 b-------------------------------|
 g------8-------8----------------|
 d----8---8---8---8-9--9--9------|
 a--6---------------9--9--9------|
 e----------6-------7--7--7------|

/palm muted.....\
 
 e----------------------------------------|
 b----------------------------------------|
 g--8--8--8-------------------------------|
 d--8--8--8--8--8--8--9--9--9--9--9--9----|(x4)
 a--6--6--6--8--8--8--9--9--9--9--9--9----|
 e-----------6--6--6--7--7--7--7--7--7----|
 e--------5----------------0---------0---|
 b-----3--------3-------3---------3------|
 g--4--------4-------4---------4---------|
 d---------------------------------------|(x3)
 a---------------------------------------|
 e---------------------------------------|

[B]  
 
 e-----------------------|
 b-----------------------|
 g-----------------------|
 d--9--9--9-9-9-9-9-9-9--|
 a--9--9--9-9-9-9-9-9-9--|
 e--7--7--7-7-7-7-7-7-7--|

Chorus:
[Em] [C] [G]  
 
 e--7--7--7--7--7-7-----------------------------------|
 b--8--8--8--8--8-8-----------------------------------|
 g--9--9--9--9--9-9--5-5-5-5--------------------------|
 d--9--9--9--9--9-9--5-5-5-5--5--5--5--5--5--5--5--5--|
 a--7--7--7--7--7-7--3-3-3-3--5--5--5--5--5--5--5--5--|
 e----------------------------3--3--3--3--3--3--3--3--|

( up stroakes...)
[G] [B] [C] [G]  
 
 e--3-------------------------------:-3-3------3------|
 b--3-------------------------------:-3----3------3---|
 g--4----------4-4-4-4-4--5-5-5-5-5-:-4-----5------5--|
 d--5-5-5-5-5--4-4-4-4-4--5-5-5-5-5-:-5----5-5----5---|
 a--5-5-5-5-5--2-2-2-2-2--3-3-3-3-3-:-5--5---5--5-----|
 e--3-3-3-3-3-----------------------:-3------3--------|

strum over G something like that
2nd Verse:
[D#] [A#] [B]  
 
 e----------------------------------------|
 b----------------------------------------|
 g------8---------------------------------|
 d----8---8-----8----9--9--9--9--9--9-----|
 a--6---------8---8--9--9--9--9--9--9-----|
 e----------6--------7--7--7--7--7--7-----|

[D#] [A#] [B]  
 
 e----------------------------------------|
 b----------------------------------------|
 g--8--8--8-------------------------------|
 d--8--8--8--8--8--8--9--9--9--9--9--9----|(x7)
 a--6--6--6--8--8--8--9--9--9--9--9--9----|
 e-----------6--6--6--7--7--7--7--7--7----|
 e--------5----------------0---------0---|
 b-----3--------3-------3---------3------|
 g--4--------4-------4---------4---------|
 d---------------------------------------|(x3)
 a---------------------------------------|
 e---------------------------------------|

[B]  
 
 e--------------------|
 b--------------------|
 g--4-4-4-4-4-4-4-4-4-|
 d--4-4-4-4-4-4-4-4-4-|
 a--2-2-2-2-2-2-2-2-2-|
 e--------------------|

Chorus *dont play last section;see above*
Bridge:
 
 e--0--0--0--0--0-0-|
 b--8--7--6--5--4-4-|
 g------------------|
 d------------------|(x4)
 a------------------|
 e------------------|

pause
PLAY OVER
[B] [G] [A]  
 
 e--------(7)-----:---------5--------------3--------5-|
 b-----(7)--------:------3-----3--------3--------5----|
 g--(7)-----------:----4-----4-------0--------2-------|
 d----------------:-----------------------------------|(x6)
 a----------------:-----------------------------------|
 e----------------:-----------------------------------|

[B] [G] [A]  
 
 e---------------------------------------|
 b---------------------------------------|
 g--4--4--4---4--4--4-----------2--2--2--|
 d--4--4--4---4--4--4--5--5--5--2--2--2--|(x2)
 a--2--2--2---2--2--2--5--5--5--0--0--0--|
 e---------------------3--3--3-----------|

[B]  
 
 e-------------------|
 b-------------------|
 g--4-4-4--4-4-4-4-4-|
 d--4-4-4--4-4-4-4-4-|
 a--2-2-2--2-2-2-2-2-|
 e-------------------|

Chorus
Solo:
 
 e--------------------------------:---------------------|
 b-------------------7-7---7------:--------------7-7-7-7|
 g----2-------s7-----6-6-7-6--4--2:--2-----s7----6-6-6-6|
 d-0----2--0-------4--------------:0---2-0-----4--------|
 a--------------------------------:---------------------|
 e--------------------------------:---------------------|
 e-------------------0----------------------------|
 b--5----------------0----------------------------|
 g--4--9--11-12-----12--12--11--9--7-7777777777---|
 d--2--x--x--x-------x---x---x--x--x-xxxxxxxxxx---|
 a--2--7--9--10-----10--10---9--7--5-5555555555---|
 e--0---------------------------------------------|
 e-------------------0------------------9-9-7--8-8-8-7-|
 b--5----------------0------------------8-8-8--8-8-8-8-|
 g--4--9--11-12-----12--12--11--9--7-7--7-7-7--7-7-7-7-|
 d--2--x--x--x-------x---x---x--x--x-x-----------------|
 a--2--7--9--10-----10--10---9--7--5-5-----------------|
 e--0--------------------------------------------------|

[G] [B] [C] [G]  
 
 e--3-------------------------------:-3-3------3------|
 b--3-------------------------------:-3----3------3---|
 g--4----------4-4-4-4-4--5-5-5-5-5-:-4-----5------5--|
 d--5-5-5-5-5--4-4-4-4-4--5-5-5-5-5-:-5----5-5----5---|
 a--5-5-5-5-5--2-2-2-2-2--3-3-3-3-3-:-5--5---5--5-----|
 e--3-3-3-3-3-----------------------:-3------3--------|

Outro:
[D#]  
 
 e--------------------|
 b------4--------4----|
 g----3--------3------|
 d--1-----1--1-----1--| repeat as needed until end of song.
 a--------------------|
 e--------------------|


Important: The song above is NOT stored on the Chordie server. The original song is hosted at www.guitaretab.com. Chordie works as a search engine and provides on-the-fly formatting. Chordie does not index songs against artists'/composers' will. To remove this song please click here.

Text color:
Chord color:
Chord grids: 
Font size:    
Page size: 

A A# B C D# Em G
Rate #1 of 2 versions

Login - add to songbook

SHARE PAGE  




You need to log in to post comments