Guitar Tabs, Chords and Lyrics
Major upgrade!! After one year development the new version of Chordie is now online! Please give feedback.


Astoria Paranoia   The Living End

 
 e--------------------|----------------------|
 B---Guitar-1---------|-Guitar 2-------------|
 G--------------------|----------------------|
 D--------------------|--9s7-7--9s7-7-9s7-9--|
 A-2p0-0-2p0-0-2p0-2--|--7s5-5--7s5-5-7s5-5--|
 D-2p0-0-2p0-0-2p0-2--|----------------------|

 


 


 Verse 1: I haven't tabbed out the rhythm because it's too time consuming to decipher and


 get the feeling there's some passing chords in between the chords tabbed here, but


 the main gist.


 


 

 
 e----------------------------------|-----------------------------------------|--|
 B------Play-2-times----------------|--then-this------------------------------|--|
 G----------------------------------|-----------------------------------------|--|
 D-----------------5--5-5-5-5-5-----|-----------------7-7-7-7-5-5-5-5---------|--|
 A-2-2-2-2-5-5-5-5-3--3-3-3-3-3-0---|-2-2-2-2-5-5-5-5-5-5-5-5-3-3-3-3-0-2-----|--|
 D-2-2-2-2-5-5-5-5--------------0---|-2-2-2-2-5-5-5-5-----------------0-2-----|--|

 


 ............... ....... ................. ............


 PM


 


 Verse 2 and so forth: Tabbing out the palm mute is hard for this section so you just


 to judge it on instinct sorry. I just tabbed the main gist of it.


 


 

 
 e---------------------------------|-------------------------------------------------|-3-3-3-3-3-3-3-3-3-3-|--|
 B---------two times---------------|-------------------------------------------------|-5-3-5-3-5-3-5-3-5-3-|--|
 G---------------------------------|-------------------------------------------------|---------------------|--|
 D-----------------5-5-5-5-5-5-5---|-----------------7-7-7-7-5-5-5-5-----------------|---------------------|--|
 A-2-2-2-2-5-5-5-5-3-3-3-3-3-3-3-0-|-2-2-2-2-5-5-5-5-5-5-5-5-3-3-3-3-2-2-2-2-2-2-2-2-|------[**]-----------|--|
 D-2-2-2-2-5-5-5-5---------------0-|-2-2-2-2-5-5-5-5-----------------2-2-2-2-2-2-2-2-|---------------------|--|


Important: The song above is NOT stored on the Chordie server. The original song is hosted at www.guitaretab.com. Chordie works as a search engine and provides on-the-fly formatting. Chordie does not index songs against artists'/composers' will. To remove this song please click here.

This song is displayed as text-only. Transposing and tuning is only available for chordpro-songs.
Rate #1 of 5 versions

Login - add to songbook

SHARE PAGE  




You need to log in to post comments