Guitar Tabs, Chords and Lyrics
Server problems seems to be fixed. Chordie has been experiencing problems with songs disappearing. These issues now seems to be fixed, but still verifying the fix. If you find anything strange, please email admin@chordie.com.


About Your Dress  The Maccabees

 
 -------------------------------------------------------------------------------

About Your Dress (Acoustic) - The Maccabees
 
 -------------------------------------------------------------------------------

Tabbed by: bart_91
Tuning: Standard
C: x32013
Am: x02210
G: 355433
Intro
[C] [Am]  
[C] [Am]  
[C] [C]  
 
 e|---------------------------------------------------------------------------|
 B|---------------------------3/5---------------------------------------------|
 G|----0---0---0---0---0---0---------0---0---0---0---0---0---0---0------------|
 D|---------------------------------------------------------------------------|
 A|--3---3---3---3---3---3---------3---3---3---3---3---3---3---3--------------|
 E|---------------------------------------------------------------------------|

[G] [G]  
 
 e|----------------------------3----------------------------------------------|
 B|--------------------------------3------------------------------------------|
 G|----4---4---4---4---4---4-----------4---4---4---4---4---4---4---4----------|
 D|---------------------------------------------------------------------------|
 A|--3---3---3---3---3---3---3---3---3---3---3---3---3---3---3---3------------|
 E|---------------------------------------------------------------------------|

[C] [C]  
 
 e|---------------------------------------------------------------------------|
 B|----------------------------3/5----------------------------3/5-------------|
 G|----0---0---0---0---0---0-----------0---0---0---0---0---0------------------|
 D|---------------------------------------------------------------------------|
 A|--3---3---3---3---3---3-----------3---3---3---3---3---3--------------------|
 E|---------------------------------------------------------------------------|

[C] [C]  
 
 e|---------------------------------------------------------------------------|
 B|----------------------------3/5--------------------------------------------|
 G|----0---0---0---0---0---0-----------0---0---0---0---0---0---0---0----------|
 D|---------------------------------------------------------------------------|
 A|--3---3---3---3---3---3-----------3---3---3---3---3---3---3---3------------|
 E|---------------------------------------------------------------------------|

[G] [G]  
 
 e|---------------------------------------------------------------------------|
 B|---------------------------------------------------------------------------|
 G|----4---4---4---4---4---4---4---4---4---4---4---4---4---4---4---4----------|
 D|---------------------------------------------------------------------------|
 A|--3---3---3---3---3---3---3---3---3---3---3---3---3---3---3---3------------|
 E|---------------------------------------------------------------------------|

[Am] [G]  
 
 e|---------------------------------------------------------------------------|
 B|---------------------------------------------------------------------------|
 G|----2---2---2---2---2---2---2---2---4---4---4---4--------------------------|
 D|---------------------------------------------------------------------------|
 A|--0---0---0---0---0---0---0---0---3---3---3---3----------------------------|
 E|---------------------------------------------------------------------------|

[G]  
[C] [Am] [C] [Am]  
 
 e|---------------------------------------------------------------------------|
 B|---------------------------------------------------------------------------|
 G|----0---0---0---0---2---2---2---2---0---0---0---0---2---2---2---2----------|
 D|---------------------------------------------------------------------------|
 A|--3---3---3---3---3---3---3---3---3---3---3---3---3---3---3---3------------|
 E|---------------------------------------------------------------------------|

[C] [C]  
 
 e|---------------------------------------------------------------------------|
 B|----------------------------3/5--------------------------------------------|
 G|----0---0---0---0---0---0-----------0---0---0---0---0---0---0---0----------|
 D|---------------------------------------------------------------------------|
 A|--3---3---3---3---3---3-----------3---3---3---3---3---3---3---3------------|
 E|---------------------------------------------------------------------------|

[G] [G]  
 
 e|--------------------------------------------3------------------------------|
 B|------------------------------------------------3--------------------------|
 G|----4---4---4---4---4---4---4---4---4---4-----------4---4---4---4----------|
 D|---------------------------------------------------------------------------|
 A|--3---3---3---3---3---3---3---3---3---3---3---3---3---3---3---3------------|
 E|---------------------------------------------------------------------------|

[C] [C]  
 
 e|---------------------------------------------------------------------------|
 B|----------------------------3/5----------------------------3/5-------------|
 G|----0---0---0---0---0---0-----------0---0---0---0---0---0------------------|
 D|---------------------------------------------------------------------------|
 A|--3---3---3---3---3---3-----------3---3---3---3---3---3--------------------|
 E|---------------------------------------------------------------------------|

[C] [C]  
 
 e|---------------------------------------------------------------------------|
 B|---------------------------------------------------------------------------|
 G|----0---0---0---0---0---0---0---0---0---0---0---0---0---0---0---0----------|
 D|---------------------------------------------------------------------------|
 A|--3---3---3---3---3---3---3---3---3---3---3---3---3---3---3---3------------|
 E|---------------------------------------------------------------------------|

[G] [G]  
 
 e|------------3---------------3----------------------------------------------|
 B|----------------3---------------3------------------------------------------|
 G|----4---4-----------4---4-----------4---4---4---4---4---4---4---4----------|
 D|---------------------------------------------------------------------------|
 A|--3---3---3---3---3---3---3---3---3---3---3---3---3---3---3---3------------|
 E|---------------------------------------------------------------------------|

[Am] [Am]  
 
 e|---------------------------------------------------------------------------|
 B|---------------------------------------------------------------------------|
 G|----2---2---2---2---2---2---2---2---2---2---2---2---2---2---2---2----------|
 D|---------------------------------------------------------------------------|
 A|--0---0---0---0---0---0---0---0---0---0---0---0---0---0---0---0------------|
 E|---------------------------------------------------------------------------|

[G]  
 
 e|---------------------------------------------------------------------------|
 B|---------------------------------------------------------------------------|
 G|----4---4---4---4---4---4---4---4------------------------------------------|
 D|---------------------------------------------------------------------------|
 A|--3---3---3---3---3---3---3---3--------------------------------------------|
 E|---------------------------------------------------------------------------|

[C] [Am] [C] [Am]  
 
 e|---------------------------------------------------------------------------|
 B|---------------------------------------------------------------------------|
 G|----0---0---0---0---2---2---2---2---0---0---0---0---2---2---2---2----------|
 D|---------------------------------------------------------------------------|
 A|--3---3---3---3---3---3---3---3---3---3---3---3---3---3---3---3------------|
 E|---------------------------------------------------------------------------|

[C] [Am] [C] [Am]  
 
 e|---------------------------------------------------------------------------|
 B|---------------------------------------------------------------------------|
 G|----0---0---0---0---2---2---2---2---0---0---0---0---2---2---2---2----------|
 D|---------------------------------------------------------------------------|
 A|--3---3---3---3---3---3---3---3---3---3---3---3---3---3---3---3------------|
 E|---------------------------------------------------------------------------|

[C]  
| / slide up
| \ slide down
| h hammer-on
| p pull-off
| ~ vibrato
| + harmonic
| x Mute note
===============================================================================

Important: The song above is NOT stored on the Chordie server. The original song is hosted at www.guitaretab.com. Chordie works as a search engine and provides on-the-fly formatting. Chordie does not index songs against artists'/composers' will. To remove this song please click here.

Text color:
Chord color:
Chord grids: 
Font size:    
Page size: 

Am C G
Rate #1 of 5 versions

Login - add to songbook

SHARE PAGE  



You need to log in to post comments