Guitar Tabs, Chords and Lyrics
Server problems seems to be fixed. Chordie has been experiencing problems with songs disappearing. These issues now seems to be fixed, but still verifying the fix. If you find anything strange, please email admin@chordie.com.


The Mess  The Naked and Famous

 
 -------------------------------------------------------------------------------

THE MESS - The Naked and Famous
 
 -------------------------------------------------------------------------------

Tabbed by: drY321
E-mail: and_1_skip@hotmail.com
Tuning: Standard
Capo: 2
[D] [Bm] [G] [A]  
 
 e|-------2-------2-------3-------0-------|
 B|-------3-------3-------0-------2-------|
 G|-------2-------4-------0-------2-------|
 D|-------0-------4-------0-------2-------|
 A|-------x-------2-------2-------0-------|
 E|-------x-------x-------3-------x-------|

Verse 1:
[D]There's nothing here but the distance
[Bm]There's nothing here but the mess
[G]If you'd had shut up you would've heard it
[D]You could have put it to rest
[D]I'm swelling and eager
[Bm]I am the raging sea
[G]I've had it up to here now
[D]I'm so tired of you needs
Chorus:
[Bm]And how does it fe[G]el to be on the faul[D]t line
[Bm]And how do we he[G]al now we're on the de[D]cline
Coz it's a he[Bm]ll of a long way to fa[G]ll just to learn to get u[D]p
And I'm [Bm]not gonna forgive you for a[G]ll of the things that you've d[D]one
Verse 2:
[D]There's nothing here but a difference
[Bm]There's nothing here but the stress
[G]These walls are stained with your moments
[D]Something you wanna confess
[D]You're at the point of attachment
[Bm]All the things you believe
[G]There's nothing left in this place but a reason to l[D]eave
Chorus:
[Bm]And how does it fe[G]el to be on the faul[D]t line
[Bm]And how do we he[G]al now we're on the de[D]cline
Coz it's a he[Bm]ll of a long way to fa[G]ll just to learn to get u[D]p
And I'm [Bm]not gonna forgive you for a[G]ll of the things that you've d[D]one
Solo (relative to capo):
Bm G D x4
\ = slide down
 
 e|--------------------------------------------------------------------|
 B|------------10-7\----------10-7-5----------10-7-5----------10-7\----|
 G|----------7--------------7---------------7---------------7----------|
 D|-----9-11-----------9-11------------9-11------------9-11------------|
 A|--------------------------------------------------------------------|
 E|--------------------------------------------------------------------|

Chorus/outro:
[Bm]And how does it fe[G]el to be on the faul[D]t line
[Bm]And how do we he[G]al now we're on the de[D]cline
Coz it's a he[Bm]ll of a long way to fa[G]ll just to learn to get u[D]p[A]
And I j[Bm]ust can't forgive you I ju[G]st can't forgive you
I[Bm] know that feeling, I k[G]now you believe that it's t[D]rue
So fu[Bm]cking cruel and it a[G]ll for a means to get thr[D]ough
Coz it's a he[Bm]ll of a long way to f[G]all just to learn to get [D]up[A]
Because this wo[Bm]rld, this world, this wo[G]rld is never eno[D]ugh
Finish on D

Important: The song above is NOT stored on the Chordie server. The original song is hosted at www.guitaretab.com. Chordie works as a search engine and provides on-the-fly formatting. Chordie does not index songs against artists'/composers' will. To remove this song please click here.

Text color:
Chord color:
Chord grids: 
Font size:    
Page size: 

A Bm D G
Rate #1 of 2 versions

Jango Player

Login - add to songbook

SHARE PAGE  




You need to log in to post comments