Guitar Tabs, Chords and Lyrics
Login is temporarily disabled for some users. Do not panic. Will be back in an hour or two. DO NOT REREGISTER!!


Don't You Wanna Find Out  The Pigeon Detectives

B: 7 9 9 8 7 7
C#m: 9 11 11 9 9 9
F#: 14 16 16 15 14 14 (verse) 2 4 4 3 2 2 (chorus)
E: 12 14 14 13 12 12
D#m: 11 13 13 11 11 11
Main Riff:
 
 e|0-0-------------------7-7-7-6-6-6-4-4--------|
 B|----4-4-2-2-0-0---x4--------------------x4---|
 G|---------------------------------------------|
 D|---------------------------------------------|
 A|---------------------------------------------|
 E|---------------------------------------------|

Verse 1:
[B]They say we look pretty good to[C#m]gether
Well, don't you wanna [F#]find out[E]
Don't you wanna [D#m]find out[C#m]
[B]I know you think you're oh so [C#m]clever
Well, soon you're gonna [F#]find out[E]
Soon you're gonna [D#m]find out[C#m]
Chorus:
That when the [B]sun comes up
There'll be [F#]nothing wrong
Cause I will [C#m]be away from you
When the [B]sun comes up
There'll be [F#]nothing wrong
Cause I will [C#m]be away from you
Main riff x1
Verse 2:
[B]I'm trying hard to make you [C#m]listen
But you don't wanna [F#]find out[E]
You don't wanna [D#m]find out[C#m]
[B]If you could see what you were [C#m]missing
I'm sure you'd wanna [F#]find out[E]
Don't you wanna [D#m]find out[C#m]
Chorus:
That when the [B]sun comes up
There'll be [F#]nothing wrong
Cause I will [C#m]be away from you
When the [B]sun comes up
There'll be [F#]nothing wrong
Cause I will [C#m]be away from you
Verse chords under solo (can't be bothered to work out)
Chorus:
When the sun c[B]omes up
There'll be [F#]nothing wrong
Cause I will [C#m]be away from you
When the [B]sun comes up
There'll be [F#]nothing wrong
Cause I will [C#m]be away from you
Outro:
[B]They say we look pretty good to[C#m]gether
Well, don't you wanna [F#]find out[E]
Don't you wanna [D#m]find out[C#m]
 
 e|0---------------------7-----6-----4--------7-----6-----4---7-|
 B|------4-----2-0---x4--------------------x3-------------------|
 G|-------------------------------------------------------------|
 D|-------------------------------------------------------------|
 A|-------------------------------------------------------------|
 E|-------------------------------------------------------------|


Important: The song above is NOT stored on the Chordie server. The original song is hosted at www.guitaretab.com. Chordie works as a search engine and provides on-the-fly formatting. Chordie does not index songs against artists'/composers' will. To remove this song please click here.

Text color:
Chord color:
Chord grids: 
Font size:    
Page size: 

B C#m D#m E F#
Rate #1 of 2 versions

Login - add to songbook

SHARE PAGE  




You need to log in to post comments