Guitar Tabs, Chords and Lyrics
Major upgrade!! After one year development the new version of Chordie is now online! Please give feedback.


Bring On the Night  The Police

Tabed by mwamemm@yahoo.fr
verse :
[A-] [E-]  
 
 E||----------------------------------------|
 B||-----10------10------10---8-----8-----8-|
 G||--------9-------9-----------9-----9-----|
 D||--10------10------10----9-----9-----9---|
 A||----------------------------------------|
 E||----------------------------------------|

[D] [A-]  
 
 ----------------------------------------|
 ----7-----7-----7----10------10------10-|
 ------7-----7-----------9-------9-------|
 --7-----7-----7---10------10------10----|
 ----------------------------------------|
 ----------------------------------------|

[E-] [G]  
 
 ------------------------------------------|
 ----8-----8-----8----12-------12-------12-|
 ------9-----9-----------12-------12-------|
 --9-----9-----9---12-------12-------12----|
 ------------------------------------------|
 ------------------------------------------|

[A-] E- 4x
 
 -----------------------------------------||
 -----10------10------10---8-----8-----8--||
 --------9-------9-----------9-----9-----*||
 --10------10------10----9-----9-----9---*||
 -----------------------------------------||
 -----------------------------------------||

Special warning !!!
sometimes on E- instead of the 8-9-9 he plays 5-4-2 :
E- becomes E-
 
 ------------------ ------------------------|
 ----8-----8-----8- ---5-------5-------5----|
 ------9-----9----- ------4-------4---------|
 --9-----9-----9--- 2-------2-------2-------|
 ------------------ ------------------------|
 ------------------ ------------------------|

you can listen to the record to play it on time ...
...or play it when you feel like it
!!!
chorus.
[G] [A]  
 
 |-----7-7---7----7-7---7--|----9--9----9-----9--9----9---|
 |-----8-8---8----8-8---8--|----10-10---10----10-10---10--|
 |*----7-7---7----7-7---7--|----9--9----9-----9--9----9---|
 |*------------------------|------------------------------|
 |-------------------------|------------------------------|
 |-------------------------|------------------------------|

A- A- E- D (Maj7) 2x
 
 ----12-12---12----12-12---12--|----12-12---12----9--9----9---||
 ----10-10---10----13-13---13--|----12-12---12----10-10---10--||
 ----9--9----9-----14-14---14--|----12-12---12----11-11---11-*||
 ------------------------------|-----------------------------*||
 ------------------------------|------------------------------||
 ------------------------------|------------------------------||

It's quick and dirty work, as usual coming from me...
The D (Maj7) may seem strange at first but fits alright.

Important: The song above is NOT stored on the Chordie server. The original song is hosted at www.guitaretab.com. Chordie works as a search engine and provides on-the-fly formatting. Chordie does not index songs against artists'/composers' will. To remove this song please click here.

Text color:
Chord color:
Chord grids: 
Font size:    
Page size: 

A D G
Rate #2 of 9 versions

Login - add to songbook

SHARE PAGE  



You need to log in to post comments