Guitar Tabs, Chords and Lyrics
Server problems seems to be fixed. Chordie has been experiencing problems with songs disappearing. These issues now seems to be fixed, but still verifying the fix. If you find anything strange, please email admin@chordie.com.


Justify   The Red Jumpsuit Apparatus

 
 d[-------------|-------------|---------------------------------------------]
 A[-------------|-------------|---------------------------------------------]
 F[-------------|-------------|---------------------------------------------]
 C[-----7-5-7---|-----3-1-3---|---------------------------------------------]
 G[---5-------5-|---1-------1-|---------------------------------------------]
 C[-0-----------|-0-----------|---------------------------------------------]

 


 


 Lead Gtr: [listen for timing]


 

 
 d[-------------------------------------------------------------------------]
 A[-------------------------------------------------------------------------]
 F[---------------------1212121212------------------------------------------]
 C[-88888--1010101010---1212121212------------------------------------------]
 G[-88888--1010101010---1010101010------------------------------------------]
 C[-88888--1010101010-------------------------------------------------------]

 


 


 Verse:


 Rhythm Gtr: x4 x4


 

 
 d[-------------|-------------|---------------------------------------------]
 A[-------------|-------------|---------------------------------------------]
 F[-------------|-------------|---------------------------------------------]
 C[-----7-5-7---|-----3-1-3---|---------------------------------------------]
 G[---5-------5-|---1-------1-|---------------------------------------------]
 C[-0-----------|-0-----------|---------------------------------------------]

 


 


 [Repeat as many times its played on tbe track] 


 

 
 d[-------------------------------------------------------------------------]
 A[-------------------------------------------------------------------------]
 F[-------------------------------------------------------------------------]
 C[-7-7-7--777---5-5-5--555-------------------------------------------------]
 G[-5-5-5--555---3-3-3--333-------------------------------------------------]
 C[-0-0-0--000---0-0-0--000-------------------------------------------------]

 


 


 Pre-Chorus:


 Both Gtrs:


 

 
 d[-------------------------------------------------------------------------]
 A[------------------------------------------------12b--------14b-----------]
 F[-7-7-7----101010101010101010101010-999999999999------7-7-7---------------]
 C[-7-7-7-0~-x-x-x-x-x-x-x-x-x-x-x-x--xxxxxxxxxxxx------7-7-7----0~---------]
 G[-5-5-5-0~-8-8-8-8-8-8-8-8-8-8-8-8--777777777777------5-5-5----0~---------]
 C[-------0~-----------------------------------------------------0~---------]

 


 [Lead plays tbe 14b and rbytbm play tbe 12b] 


 


 

 
 d[-------------------------------------------------------------------------]
 A[-------------------------------------------------------------------------]
 F[-101010101010101010101010-121212121212121212121212-----------------------]
 C[-x-x-x-x-x-x-x-x-x-x-x-x--x-x-x-x-x-x-x-x-x-x-x-x------------------------]
 G[-8-8-8-8-8-8-8-8-8-8-8-8--101010101010101010101010-----------------------]
 C[-------------------------------------------------------------------------]

 


 


 Chorus:


 Both Gtr:


 

 
 d[-------------------------------------------------------------------------]
 A[-------------------------------------------------------------------------]
 F[--------777777777777--333333--555555555555-------555555555555-777777-----]
 C[-00000~-777777777777--333333--555555555555-------555555555555-777777-----]
 G[-00000~-555555555555--111111--333333333333-8-7-3-333333333333-555555-----]
 C[-00000~------------------------------------------------------------------]
 d[-------------------------------------------------------------------------]
 A[-------------------------------------------------------------------------]
 F[-------------------------------------------------------------------------]
 C[-222222--4444444---------------------------------------------------------]
 G[-222222--4444444---------------------------------------------------------]
 C[-222222--4444444---------------------------------------------------------]

 


 


 Post-Chorus


 Rhythm: Lead: [Listen for Timing]


 

 
 d[---1--1-----1------|-----------------------------------------------------]
 A[-------3------3----|-----------------------------------------------------]
 F[---------2------2--|-----------------------------------------------------]
 C[-0--0------0-------|--888888---------------------------------------------]
 G[-------------------|--888888---------------------------------------------]
 C[-------------------|--888888---------------------------------------------]

 


 


 Then Repeat Verse, Pre-Chorus, and Chorus(play the chorus twice)


 


 Bridge:


 Rhythm Gtr: Dm


 

 
 d[-*-1--1-----1--------1--1------1--*-|-5-3-1-3-0h3p1---|*|-1~-------------]
 A[-------3------3-----------3------3--|--------------0h3|p|-3~-------------]
 F[---------2------2-----------2------2|-----------------|l|-2~-------------]
 C[-0--0------0-------0---0------0-----|-----------------|a|-0~-------------]
 G[------------------------------------|-----------------|y|----------------]
 C[--*------------------------------*--|-----------------|*|----------------]

 


 


 [Repeat Cborus] 


 


 Then Play...


 Lead Gtr:


 

 
 d[-------------------------------------------------------------------------]
 A[-------------------------------------------------------------------------]
 F[-121212121212---141414141414---------------------------------------------]
 C[-x-x-x-x-x-x----x-x-x-x-x-x----------------------------------------------]
 G[-101010101010---121212121212---------------------------------------------]
 C[-------------------------------------------------------------------------]

 


 


 Repeat Chorus to play along to the lyrics "Justify when you change your mind is it going to end?"


 Outro:


 Rhythm: Lead:


 

 
 d[--------------------|----------------------------------------------------]
 A[--------------------|-14b------------------------------------------------]
 F[--------------------|----------------------------------------------------]
 C[-0~-----------------|----------------------------------------------------]
 G[-0~-----------------|----------------------------------------------------]
 C[-0~-----------------|----------------------------------------------------]


Important: The song above is NOT stored on the Chordie server. The original song is hosted at www.guitaretab.com. Chordie works as a search engine and provides on-the-fly formatting. Chordie does not index songs against artists'/composers' will. To remove this song please click here.

This song is displayed as text-only. Transposing and tuning is only available for chordpro-songs.
Rate #1 of 3 versions

Jango Player

Login - add to songbook

SHARE PAGE  



You need to log in to post comments