Guitar Tabs, Chords and Lyrics
Major upgrade!! After one year development the new version of Chordie is now online! Please give feedback.


Fanatics and Whores  The Showdown

D5(type 2)
0 0 0 x x x
[G5]5 5 5 x x x
[G#5]6 6 6 x x x
Gtr I (D A D G B E) - 'Untitled'
Gtr II (D A D G B E) - 'Untitled'
[4/4] Gtr I
 
 PM ~~~~~ PM--------------------|

E E E Q E E E E E E E E E E E 12x
 
 ||------------------------|---------------------||
 ||o-----------------------|--------------------o||
 ||------------------------|---------------------||
 ||---/6-\5---[3]b5--------|---------------------||
 ||o--/6-\5-0--------0-0-0-|-0-0-0-0-0-0-0-0----o||
 ||---/6-\5-0--------0-0-0-|-0-0-0-0-0-0-0-0-----||

1.,2.,3.
PM PM--| ~
E E E Q E E E Q S Q E E E E E E 4x
 
 |----------||------------------|--------------------------||
 |----------||o-----------------|-------------------------o||
 |----------||------------------|--------------------------||
 |-/6-\5----||------------------|--------------------------||
 |-/6-\5----||o--5--------------|-------------------------o||
 |-/6-\5-0--||------6-5-3-5-----|-3b3.5---0-3b3.5-0-3-2----||

4.
 
 PM--| ~~~~~ PM--------------------|

E E E Q E E E E E E E E E E E
 
 |--------------------|------------------|
 |--------------------|------------------|
 |--------------------|------------------|
 |-6-5---[3]b5--------|------------------|
 |-6-5-0--------0-0-0-|-0-0-0-0-0-0-0-0--|
 |-6-5-0--------0-0-0-|-0-0-0-0-0-0-0-0--|
 PM ~~~~~ PM-------------------------

E E E Q E E E E E E E E E E E 3x
 
 ||-----------------------|------------------||
 ||o----------------------|-----------------o||
 ||-----------------------|------------------||
 ||--/6-\5---[3]b5--------|------------------||
 ||o-/6-\5-0--------0-0-0-|-0-0-0-0-0-0-0-0-o||
 ||--/6-\5-0--------0-0-0-|-0-0-0-0-0-0-0-0--||
 ---------| ~~~~~ PM--| PM--| PM--|

E E E Q E E E E E E E E E E E 4x
 
 |-||---------------------|--------------------||
 |-||o--------------------|-------------------o||
 |-||---------------------|--------------------||
 |-||--6-5---[3]b5--------|--------------------||
 |-||o-6-5-0--------0-0-0-|---0-0-0---0-0-0---o||
 |-||--6-5-0--------0-0-0-|---0-0-0---0-0-0----||

PM PM--| ~
E E E Q E E E Q S Q E E E E E E 4x
 
 |---------||-----------------|---------------------------||----|
 |---------||o----------------|--------------------------o||----|
 |---------||-----------------|---------------------------||----|
 |-/6-\5---||-----------------|---------------------------||----|
 |-/6-\5---||o--5-------------|--------------------------o||----|
 |-/6-\5-0-||------6-5-3-5----|-3b3.5---0-3b3.5-0-3-2-----||----|

Gtr I
Q E S S S S E E E Q E S S S S E E E
 
 ||--------------------|------------------------||----|
 ||o-------------------|-----------------------o||----|
 ||--------------------|------------------------||----|
 ||--------------------|------------------------||----|
 ||o-------------------|---------------5-3-----o||----|
 ||--0-0-3h5p3p0-3-0---|--0--0-3-5-3-0-----6----||----|

|
| Gtr II
| W +W
 
 ||--------------------|------------------------||----|
 ||o-------------------|-----------------------o||----|
 ||--------------------|------------------------||----|
 ||--0-----------------|-(0)--------------------||----|
 ||o-0-----------------|-(0)-------------------o||----|
 ||--0-----------------|-(0)--------------------||----|

|-|
|-|
|-|
|-|
|-|
|-|
PM--| ~
Q E E E Q S Q E E E E E E 8x
 
 ||-----------------------|-------------------||----|
 ||o----------------------|------------------o||----|
 ||-----------------------|-------------------||----|
 ||-----------------------|-------------------||----|
 ||o-5--------------------|------------------o||----|
 ||-----6-5-3-5----3b3.5--|-0-3b3.5-0-3-2-----||----|
 PM--| ~~~~~ PM--| PM--| PM--|

E E E Q E E E E E E E E E E E
 
 |------------------------------------|
 |------------------------------------|
 |------------------------------------|
 |-6-5---[3]b5------------------------|
 |-6-5----------0-0-0---0-0-0---0-0-0-|
 |-6-5-0--------0-0-0---0-0-0---0-0-0-|
 PM ~~~~~ PM--| PM--| PM--|

E E E Q E E E E E E E E E E E 3x
 
 ||-----------------------|-------------------||
 ||o----------------------|------------------o||
 ||-----------------------|-------------------||
 ||--/6-\5---[3]b5--------|-------------------||
 ||o-/6-\5-0--------0-0-0-|---0-0-0---0-0-0--o||
 ||--/6-\5-0--------0-0-0-|---0-0-0---0-0-0---||

PM ~~~~~~
[E] [E] [E] [B]  
 
 |-------------------|
 |-------------------|
 |-------------------|
 |-/6-\5---[3]b5\----|
 |-/6-\5-------------|
 |-/6-\5-0-----------|

Duration Legend
 
 ---------------
 W - whole; H - half; Q - quarter; E - 8th; S - 16th; T - 32nd; X - 64th; a - acciaccatura

+ - note tied to previous; . - note dotted; .. - note double dotted
Uncapitalized letters represent notes that are staccato (1/2 duration)
Irregular groupings are notated above the duration line
Duration letters will always appear directly above the note/fret number it represents the
duration for. Duration letters with no fret number below them represent rests. Multi-
bar rests are notated in the form Wxn, where n is the number of bars to rest for. Low
melody durations appear below the staff
Tablature Legend
 
 ----------------

h - hammer-on
p - pull-off
b - bend
pb - pre-bend
r - bend release (if no number after the r, then release immediately)
/\ - slide into or out of (from/to "nowhere")
s - legato slide
S - shift slide
- natural harmonic
[n] - artificial harmonic
n(n) - tapped harmonic
~ - vibrato
tr - trill
T - tap
TP - trem. picking
PM - palm muting
\n/ - tremolo bar dip; n = amount to dip
\n - tremolo bar down
n/ - tremolo bar up
/n\ - tremolo bar inverted dip
= - hold bend; also acts as connecting device for hammers/pulls
- volume swell (louder/softer)
x - on rhythm slash represents muted slash
o - on rhythm slash represents single note slash
Misc Legend
 
 -----------

| - bar
|| - double bar
||o - repeat start
o|| - repeat end
*| - double bar (ending)
: - bar (freetime)
$ - Segno
& - Coda
Tempo markers - = BPM(8/16=s8/s16), where s8 = swing 8ths, s16 = swing 16ths

Important: The song above is NOT stored on the Chordie server. The original song is hosted at www.guitaretab.com. Chordie works as a search engine and provides on-the-fly formatting. Chordie does not index songs against artists'/composers' will. To remove this song please click here.

Text color:
Chord color:
Chord grids: 
Font size:    
Page size: 

B E G#5 G5
Rate #2 of 3 versions

Login - add to songbook

SHARE PAGE  




You need to log in to post comments