Guitar Tabs, Chords and Lyrics
Server problems seems to be fixed. Chordie has been experiencing problems with songs disappearing. These issues now seems to be fixed, but still verifying the fix. If you find anything strange, please email admin@chordie.com.


Afflictions   The Sorrow

 
 D|-------------------------------------------------------------------------|
 A|-10-10-10-10-10-10-10-10-10-10--8-8-8-8-8-8-8--13-13-13-13-13-13-13-13---|
 F|--X--X--X--X--X--X--X--X--X--X--X-X-X-X-X-X-X---X--X--X--X--X--X--X--X---|
 C|--7--7--7--7--7--7--7--7--7--7--5-5-5-5-5-5-5--10-10-10-10-10-10-10-10---|
 G|-------------------------------------------------------------------------|
 C|-------------------------------------------------------------------------|

 


 


 Matze


 

 
 D|-------------------------------------------------------------------------|
 A|-------------------------------------------------------------------------|
 F|-10-10-10-10-10-10-10-10-10-10-10-10-10-10-10--14-14-14-14-14-14-14-14---|
 C|--X--X--X--X--X--X--X--X--X--X--X--X--X--X--X---X--X--X--X--X--X--X--X---|
 G|--8--8--8--8--8--8--8--8--8--8--8--8--8--8--8--12-12-12-12-12-12-12-12---|
 C|-------------------------------------------------------------------------|

 


 


 [Andi]  

 
 D|-------------------------------------------------------------------------|
 A|-6-6-6-6-6-6-6-6-6-6-6-6-6-6-6-6-6-6-6-6--5-5-5-5-5-5-5-5-5-5-5-5-5-5-5--|
 F|-X-X-X-X-X-X-X-X-X-X-X-X-X-X-X-X-X-X-X-X--X-X-X-X-X-X-X-X-X-X-X-X-X-X-X--|
 C|-3-3-3-3-3-3-3-3-3-3-3-3-3-3-3-3-3-3-3-3--2-2-2-2-2-2-2-2-2-2-2-2-2-2-2--|
 G|-------------------------------------------------------------------------|
 C|-------------------------------------------------------------------------|

 


 


 Matze


 

 
 D|-------------------------------------------------------------------------|
 A|-------------------------------------------------------------------------|
 F|-7-7-7-7-7-7-7-7-7-7-7-7-7-7-7-7-7-7-7-7--5-5-5-5-5-5-5-5-5-5-5-5-5-5-5--|
 C|-X-X-X-X-X-X-X-X-X-X-X-X-X-X-X-X-X-X-X-X--X-X-X-X-X-X-X-X-X-X-X-X-X-X-X--|
 G|-5-5-5-5-5-5-5-5-5-5-5-5-5-5-5-5-5-5-5-5--3-3-3-3-3-3-3-3-3-3-3-3-3-3-3--|
 C|-------------------------------------------------------------------------|

 


 


 -Verso- x4


 [Andi]  

 
 D|-------------------------------------------------------------------------|
 A|-------------------------------------------------------------------------|
 F|--------------10-------5-------7--------------------10-------14-------12-|
 C|---------------X-------X-------X---------------------X--------X--------X-|
 G|-0-0-0-0-0-0---8--0-0--3--0-0--5--0-0-0-0-0-0-0-0-0--8--0-0--12--0-0--10-|
 C|-0-0-0-0-0-0------0-0-----0-0-----0-0-0-0-0-0-0-0-0-----0-0------0-0-----|

 


 P.M. . . . . . . . . . . . . . . . . . . . . . .


 


 Matze


 

 
 D|-------------------------------------------------------------------------|
 A|--------------10-------8-------10--------------------6-------6-------5---|
 F|---------------X-------X--------X--------------------X-------X-------X---|
 C|---------------7-------5--------7--------------------3-------3-------2---|
 G|-0-0-0-0-0-0------0-0-----0-0------0-0-0-0-0-0-0-0-0----0-0-----0-0------|
 C|-0-0-0-0-0-0------0-0-----0-0------0-0-0-0-0-0-0-0-0----0-0-----0-0------|

 


 P.M. . . . . . . . . . . . . . . . . . . . . . .


 


 -Verso II- x2


 Andi & Matze


 

 
 D|-------------------------------------------------------------------------|
 A|-------------------------------------------------------------------------|
 F|-------------------------------------------------------------------------|
 C|---------10\9----5/7----3-2-----------------10\9----3/5----12\10---------|
 G|-0-0-0-0--8\7-0--3/5-0--1-0-0-0-0-0-0-0-0-0--8\7-0--1/3-0--10\8--0-0-0-0-|
 C|-0-0-0-0------0------0------0-0-0-0-0-0-0-0------0------0--------0-0-0-0-|

 


 P.M. . . . . . . . . . . . . . . . . . . .


 


 -Pre-coro- x3


 [Andi]  

 
 D|-------------------------------------------------------------------------|
 A|-10-10-10-10-10-10-10-10-10--13-13-13-13-13--6-6-6-6-6-6--5-5-5-5-5-5----|
 F|--x--x--x--x--x--x--x--x--x---x--x--x--x--x--x-x-x-x-x-x--x-x-x-x-x-x----|
 C|--7--7--7--7--7--7--7--7--7--10-10-10-10-10--3-3-3-3-3-3--2-2-2-2-2-2----|
 G|-------------------------------------------------------------------------|
 C|-------------------------------------------------------------------------|

 


 


 Matze


 

 
 D|-------------------------------------------------------------------------|
 A|-------------------------------------------------------------------------|
 F|-------------------------------------------------------------------------|
 C|-------------------------------------------------------------------------|
 G|-0-0-0-0-0-0-0-0-0-0-0-0-0-0-0-0-0-0-0-0-0-0-0-0-0-0-0-0-0-0-0-0-0-0-0-0-|
 C|-0-0-0-0-0-0-0-0-0-0-0-0-0-0-0-0-0-0-0-0-0-0-0-0-0-0-0-0-0-0-0-0-0-0-0-0-|

 


 


 Matze


 

 
 D|-------------------------------------------------------------------------|
 A|-------------------------------------------------------------------------|
 F|-------------------------------------------------------------------------|
 C|-------------------------------------------------------------------------|
 G|-5-5-5-5-5-5-5-5-5-5-5-5-5-5-5-5-5-5-5-5-5-5-5-5-5-5-5-5-5-5-7-7-7-7-7-7-|
 C|-5-5-5-5-5-5-5-5-5-5-5-5-5-5-5-5-5-5-5-5-5-5-5-5-5-5-5-5-5-5-7-7-7-7-7-7-|

 


 


 Matze


 

 
 D|-------------------------------------------------------------------------|
 A|-------------------------------------------------------------------------|
 F|-------------------------------------------------------------------------|
 C|-------------------------------------------------------------------------|
 G|-8-8-8-8-8-8-8-8-8-8-8-8-8-8-8-8-8-8-5-5-5-5-5-5-5-5-5-5-5-5-5-5-5-5-5---|
 C|-8-8-8-8-8-8-8-8-8-8-8-8-8-8-8-8-8-8-5-5-5-5-5-5-5-5-5-5-5-5-5-5-5-5-5---|

 


 


 -Coro-


 [Andi]  

 
 D|---3---3---3---3-----3---3---3---3-----3---3---3---3-----3---3---3---3---|
 A|-1---1---1---1-----0---0---0---0-----3---3---3---3-----------------------|
 F|-------------------------------------------------------0---0---0---0-----|
 C|-------------------------------------------------------------------------|
 G|-------------------------------------------------------------------------|
 C|-------------------------------------------------------------------------|

 


 


 Matze


 

 
 D|-------------------------------------------------------------------------|
 A|-------------------------------------------------------------------------|
 F|---------------------------------------3-3-3-3-3-3-3---------------------|
 C|-3-3-3-3-3-3-3-3-3--1-1-1-1-1-1-1-1-1--3-3-3-3-3-3-3--2-2-2-2-2-2-2-2-2--|
 G|-3-3-3-3-3-3-3-3-3--1-1-1-1-1-1-1-1-1--1-1-1-1-1-1-1--2-2-2-2-2-2-2-2-2--|
 C|-3-3-3-3-3-3-3-3-3--1-1-1-1-1-1-1-1-1-----------------2-2-2-2-2-2-2-2-2--|

 


 


 -Pre-verso-


 [Andi]  

 
 D|-------------------------------------------------------------------------|
 A|-------------------------------------------------------------------------|
 F|--------------10-------5-------7--------------------10-------14-------12-|
 C|---------------X-------X-------X---------------------X--------X--------X-|
 G|-0-0-0-0-0-0---8--0-0--3--0-0--5--0-0-0-0-0-0-0-0-0--8--0-0--12--0-0--10-|
 C|-0-0-0-0-0-0------0-0-----0-0-----0-0-0-0-0-0-0-0-0-----0-0------0-0-----|

 


 P.M. . . . . . . . . . . . . . . . . . . . . . .


 


 Matze


 

 
 D|-------------------------------------------------------------------------|
 A|--------------10-------8-------10--------------------6-------6-------5---|
 F|---------------X-------X--------X--------------------X-------X-------X---|
 C|---------------7-------5--------7--------------------3-------3-------2---|
 G|-0-0-0-0-0-0------0-0-----0-0------0-0-0-0-0-0-0-0-0----0-0-----0-0------|
 C|-0-0-0-0-0-0------0-0-----0-0------0-0-0-0-0-0-0-0-0----0-0-----0-0------|

 


 P.M. . . . . . . . . . . . . . . . . . . . . . .


 


 -Verso- x4


 [Andi]  

 
 D|-------------------------------------------------------------------------|
 A|-------------------------------------------------------------------------|
 F|--------------10-------5-------7--------------------10-------14-------12-|
 C|---------------X-------X-------X---------------------X--------X--------X-|
 G|-0-0-0-0-0-0---8--0-0--3--0-0--5--0-0-0-0-0-0-0-0-0--8--0-0--12--0-0--10-|
 C|-0-0-0-0-0-0------0-0-----0-0-----0-0-0-0-0-0-0-0-0-----0-0------0-0-----|

 


 P.M. . . . . . . . . . . . . . . . . . . . . . .


 


 Matze


 

 
 D|-------------------------------------------------------------------------|
 A|--------------10-------8-------10--------------------6-------6-------5---|
 F|---------------X-------X--------X--------------------X-------X-------X---|
 C|---------------7-------5--------7--------------------3-------3-------2---|
 G|-0-0-0-0-0-0------0-0-----0-0------0-0-0-0-0-0-0-0-0----0-0-----0-0------|
 C|-0-0-0-0-0-0------0-0-----0-0------0-0-0-0-0-0-0-0-0----0-0-----0-0------|

 


 P.M. . . . . . . . . . . . . . . . . . . . . . .


 


 -Verso II- x2


 Andi & Matze


 

 
 D|-------------------------------------------------------------------------|
 A|-------------------------------------------------------------------------|
 F|-------------------------------------------------------------------------|
 C|---------10\9----5/7----3-2-----------------10\9----3/5----12\10---------|
 G|-0-0-0-0--8\7-0--3/5-0--1-0-0-0-0-0-0-0-0-0--8\7-0--1/3-0--10\8-0-0-0-/13|
 C|-0-0-0-0------0------0------0-0-0-0-0-0-0-0------0------0-------0-0-0----|

 


 P.M. . . . . . . . . . . . . . . . . . .


 


 Pre-coro- x3


 [Andi]  

 
 D|-------------------------------------------------------------------------|
 A|-10-10-10-10-10-10-10-10-10--13-13-13-13-13--6-6-6-6-6-6--5-5-5-5-5-5----|
 F|--x--x--x--x--x--x--x--x--x---x--x--x--x--x--x-x-x-x-x-x--x-x-x-x-x-x----|
 C|--7--7--7--7--7--7--7--7--7--10-10-10-10-10--3-3-3-3-3-3--2-2-2-2-2-2----|
 G|-------------------------------------------------------------------------|
 C|-------------------------------------------------------------------------|

 


 


 Matze


 

 
 D|-------------------------------------------------------------------------|
 A|-------------------------------------------------------------------------|
 F|-------------------------------------------------------------------------|
 C|-------------------------------------------------------------------------|
 G|-0-0-0-0-0-0-0-0-0-0-0-0-0-0-0-0-0-0-0-0-0-0-0-0-0-0-0-0-0-0-0-0-0-0-0-0-|
 C|-0-0-0-0-0-0-0-0-0-0-0-0-0-0-0-0-0-0-0-0-0-0-0-0-0-0-0-0-0-0-0-0-0-0-0-0-|

 


 


 Matze


 

 
 D|-------------------------------------------------------------------------|
 A|-------------------------------------------------------------------------|
 F|-------------------------------------------------------------------------|
 C|-------------------------------------------------------------------------|
 G|-5-5-5-5-5-5-5-5-5-5-5-5-5-5-5-5-5-5-5-5-5-5-5-5-5-5-5-5-5-5-7-7-7-7-7-7-|
 C|-5-5-5-5-5-5-5-5-5-5-5-5-5-5-5-5-5-5-5-5-5-5-5-5-5-5-5-5-5-5-7-7-7-7-7-7-|

 


 


 Matze


 

 
 D|-------------------------------------------------------------------------|
 A|-------------------------------------------------------------------------|
 F|-------------------------------------------------------------------------|
 C|-------------------------------------------------------------------------|
 G|-8-8-8-8-8-8-8-8-8-8-8-8-8-8-8-8-8-8-5-5-5-5-5-5-5-5-5-5-5-5-5-5-5-5-5---|
 C|-8-8-8-8-8-8-8-8-8-8-8-8-8-8-8-8-8-8-5-5-5-5-5-5-5-5-5-5-5-5-5-5-5-5-5---|

 


 


 -Coro- x2


 [Andi]  

 
 D|---3---3---3---3-----3---3---3---3-----3---3---3---3-----3---3---3---3---|
 A|-1---1---1---1-----0---0---0---0-----3---3---3---3-----------------------|
 F|-------------------------------------------------------0---0---0---0-----|
 C|-------------------------------------------------------------------------|
 G|-------------------------------------------------------------------------|
 C|-------------------------------------------------------------------------|

 


 


 Matze


 

 
 D|-------------------------------------------------------------------------|
 A|-------------------------------------------------------------------------|
 F|---------------------------------------3-3-3-3-3-3-3---------------------|
 C|-3-3-3-3-3-3-3-3-3--1-1-1-1-1-1-1-1-1--3-3-3-3-3-3-3--2-2-2-2-2-2-2-2-2--|
 G|-3-3-3-3-3-3-3-3-3--1-1-1-1-1-1-1-1-1--1-1-1-1-1-1-1--2-2-2-2-2-2-2-2-2--|
 C|-3-3-3-3-3-3-3-3-3--1-1-1-1-1-1-1-1-1-----------------2-2-2-2-2-2-2-2-2--|

 


 


 -Intro- x5


 [Andi]  

 
 D|-------------------------------------------------------------------------|
 A|-10-10-10-10-10-10-10-10-10-10--8-8-8-8-8-8-8--13-13-13-13-13-13-13-13---|
 F|--X--X--X--X--X--X--X--X--X--X--X-X-X-X-X-X-X---X--X--X--X--X--X--X--X---|
 C|--7--7--7--7--7--7--7--7--7--7--5-5-5-5-5-5-5--10-10-10-10-10-10-10-10---|
 G|-------------------------------------------------------------------------|
 C|-------------------------------------------------------------------------|

 


 


 Matze


 

 
 D|-------------------------------------------------------------------------|
 A|-------------------------------------------------------------------------|
 F|-10-10-10-10-10-10-10-10-10-10-10-10-10-10-10--14-14-14-14-14-14-14-14---|
 C|--X--X--X--X--X--X--X--X--X--X--X--X--X--X--X---X--X--X--X--X--X--X--X---|
 G|--8--8--8--8--8--8--8--8--8--8--8--8--8--8--8--12-12-12-12-12-12-12-12---|
 C|-------------------------------------------------------------------------|

 


 


 [Andi]  

 
 D|-------------------------------------------------------------------------|
 A|-6-6-6-6-6-6-6-6-6-6-6-6-6-6-6-6-6-6-6-6--5-5-5-5-5-5-5-5-5-5-5-5-5-5-5--|
 F|-X-X-X-X-X-X-X-X-X-X-X-X-X-X-X-X-X-X-X-X--X-X-X-X-X-X-X-X-X-X-X-X-X-X-X--|
 C|-3-3-3-3-3-3-3-3-3-3-3-3-3-3-3-3-3-3-3-3--2-2-2-2-2-2-2-2-2-2-2-2-2-2-2--|
 G|-------------------------------------------------------------------------|
 C|-------------------------------------------------------------------------|

 


 


 Matze


 

 
 D|-------------------------------------------------------------------------|
 A|-------------------------------------------------------------------------|
 F|-7-7-7-7-7-7-7-7-7-7-7-7-7-7-7-7-7-7-7-7--5-5-5-5-5-5-5-5-5-5-5-5-5-5-5--|
 C|-X-X-X-X-X-X-X-X-X-X-X-X-X-X-X-X-X-X-X-X--X-X-X-X-X-X-X-X-X-X-X-X-X-X-X--|
 G|-5-5-5-5-5-5-5-5-5-5-5-5-5-5-5-5-5-5-5-5--3-3-3-3-3-3-3-3-3-3-3-3-3-3-3--|
 C|-------------------------------------------------------------------------|


Important: The song above is NOT stored on the Chordie server. The original song is hosted at www.guitaretab.com. Chordie works as a search engine and provides on-the-fly formatting. Chordie does not index songs against artists'/composers' will. To remove this song please click here.

This song is displayed as text-only. Transposing and tuning is only available for chordpro-songs.
Rate #1 of 2 versions

Jango Player

Login - add to songbook

SHARE PAGE  



You need to log in to post comments