Guitar Tabs, Chords and Lyrics
Server problems seems to be fixed. Chordie has been experiencing problems with songs disappearing. These issues now seems to be fixed, but still verifying the fix. If you find anything strange, please email admin@chordie.com.


All Time Low  The Wanted

 
 -------------------------------------------------------------------------------

ALL TIME LOW - The Wanted
 
 -------------------------------------------------------------------------------

www.thewantedmusic.com
www.myspace.com/thewanted
Tabbed by: Alex Miller
Tuning: Standard
Chords used; Emaj7, B, G#m, E, F#
Rough estimation of string intro
 
 e|--------|----------|----------|----------------|
 B|--------|----------|----------|----------------|
 G|-11-8-8-|---11-8-8-|---11-8-8-|---11-8-8-------|
 D|-9--9-9-|---9--9-9-|---9--9-9-|---9--9-9--11-9-|
 A|-7--7-7-|-7-7--7-7-|-7-7--7-7-|-7-7--7-7--7--7-|
 E|--------|----------|----------|----------------|
 e|--------|----------|----------|--------------|
 B|--------|----------|----------|--------------|
 G|-8------|---8------|---8------|------8-------|
 D|-9--9-9-|---9--9-9-|---9--9-9-|---11----11-9-|
 A|--------|----------|----------|--------------|
 E|-7--7-7-|-7-7--7-7-|-7-7--7-7-|-7-7--7--7--7-|

Alternatively the underlying chords could be played instead of this string part. The chords are:
e|---| e|-7-|
B|---| B|-7-|
G|-8-| G|-8-|
D|-9-| D|-9-|
A|-7-| A|-9-|
E|---| E|-7-|
[Emaj7] [B]  
Lyrics
[Emaj7]Praying won't do it
Hating won't do it
Drinking won't do it
Fighting won't knock you [B]out
Of my head
[Emaj7]Hiding won't hide it
Smiling won't hide it
Like I ain't tried it
Everyone's tried it [B]now
And failed somehow
[E]So when you gonna let me
When you gonna let me out - [F#]Out
Chorus
And if you [G#m]know
How do you get up from an all time [E]low
I'm in pieces
Seems like [B]peace is
The only thing I'll never [F#]know
How do you get up
Get up
Verse
[G#m]Cos driving won't do it
Flying won't do it
[E]Denying won't do it
Crying won't drown it [B]out
What you s[F#]aid
When I'm [G#m]standing on the yellow line
Waiting at the station
[E]Or I'm late for work
A vital presentation
[B]If you call me now girl
Without reservation
[F#]I would try to break through
Chorus
But if you [G#m]know
How do you get up from an all time l[E]ow
I'm in pieces
It seems like [B]peace is
The only thing I never [F#]know
How do you get up from an all time [G#m]low
Bridge
I can't even find a place to [E]start
How do I choose between my head and [B]heart
Till it ceases I never k[F#]now
How do you get up from an all time [G#m]low
(Repeat the exact same chord pattern for the rest of the song)
A low, (repeat)
Can you hear me
A low (repeat)
Can't you hear me
And if you know
Repeat chorus
Alternatively a capo could be used at second fret making the chords;
Emaj7 = Dmaj7
E = D
B = A
G#m = F#m
F# = A

Important: The song above is NOT stored on the Chordie server. The original song is hosted at www.guitaretab.com. Chordie works as a search engine and provides on-the-fly formatting. Chordie does not index songs against artists'/composers' will. To remove this song please click here.

Text color:
Chord color:
Chord grids: 
Font size:    
Page size: 

B E Emaj7 F# G#m
Rate #0 of 9 versions

Jango Player

Login - add to songbook

SHARE PAGE  



You need to log in to post comments