Guitar Tabs, Chords and Lyrics
Server problems seems to be fixed. Chordie has been experiencing problems with songs disappearing. These issues now seems to be fixed, but still verifying the fix. If you find anything strange, please email admin@chordie.com.


Hot Bed  The Whigs

 
 ----------------------------------------------------------------------------

Hot Bed - The Whigs
 
 ----------------------------------------------------------------------------

Tabbed by: adslam3
This is very easy song consisting of 4 different chords.
The strumming is generally a steady up and down pattern.
Listening to the song to hear the exact strumming. You can do it, it's
very simple.
A "rough" chords version is at the bottom of this tab.
Tuning: Standard
INTRO/VERSES (0:00-0:47)(1:03-1:36)(1:52-1:05)
[Em] [G] [C] [G]  
 
 e|-0--0-0---3--3-3---0-0-0-0---3-3-3-3--------------------------------------|
 B|-0--0-0---3--3-3---1-1-1-1---3-3-3-3--------------------------------------|
 G|-0--0-0---0--0-0---0-0-0-0---0-0-0-0-------Repeat as necessary------------|
 D|-2--2-2---0--0-0---2-2-2-2---0-0-0-0--------------------------------------|
 A|-2--2-2---2--2-2---3-3-3-3---2-2-2-2--------------------------------------|
 E|-0--0-0---3--3-3---0-0-0-0---3-3-3-3--------------------------------------|

CHORUS (0:48-1:02)(1:37-1:51)(2:47-2:59)
[C] [G] [Em]  
 
 e|-0-0-0-0-0-0-0-0--3-3-3-3--0-0-0-0----------------------------------------|
 B|-1-1-1-1-1-1-1-1--3-3-3-3--0-0-0-0----------------------------------------|
 G|-0-0-0-0-0-0-0-0--0-0-0-0--0-0-0-0----------------------------------------|
 D|-2-2-2-2-2-2-2-2--0-0-0-0--2-2-2-2----This is played 4 times--------------|
 A|-3-3-3-3-3-3-3-3--2-2-2-2--2-2-2-2----------------------------------------|
 E|-0-0-0-0-0-0-0-0--3-3-3-3--0-0-0-0----------------------------------------|

BRIDGE (1:05-2:19)NOTE: Here, you don't need to strum full chord.
[G] [Em] [C]  
 
 e|--3~------0~---0~---------------------------------------------------------|
 B|--3~------0~---1~---------------------------------------------------------|
 G|--0~------0~---0~-------Repeat once---------------------------------------|
 D|--0~------2~---2~---------------------------------------------------------|
 A|--2~------2~---3~---------------------------------------------------------|
 E|--3~------0~---0~---------------------------------------------------------|

BRIDGE PART 2 (Steady strumming) (2:19-2:46)
[G] [C]  
 
 e|---3--------------------0-------------------------------------------------|
 B|---3--------------------1-------------------------------------------------|
 G|---0--------------------0-------------------This is played 4 times--------|
 D|---0--strum 16 times----2---Strum 16 times--------------------------------|
 A|---2--------------------3-------------------------------------------------|
 E|---3--------------------0-------------------------------------------------|

Go back to Chorus until the end
LYRICS with outline of chords:
INTRO/VERSE (Em - G - C - G)
Standing at the door
There?s a man to me
Shaking in my head
As he starts to speak
And he just might be afraid
He just might be afraid
I don?t wanna hear what he?s gonna say
CHORUS (C - C - G - Em)
Whoah, whoah, whoah-oah
VERSE 2 (Em - G - C - G)
In the quite home
I can here you say
I can you hear you now
If you wanna speak
But you just might be afraid
I just might be afraid
I don?t wanna hear what you?re gonna say
CHORUS (C - C- G - Em)
Whoah, whoah, whoah-oah
VERSE CHORDS before bridge (Em - G - C - G)
BRIDGE
I don?t know if the [Em]past will change me [C]all the time[G]
I don?t know if your [Em]words will haunt me [C]all my life[G]
I don?t know will,[C] I don?t know will[G]
I don?t know if you [C]told me enough all my life[G]
************************************
~ Let ring
************************************

Important: The song above is NOT stored on the Chordie server. The original song is hosted at www.guitaretab.com. Chordie works as a search engine and provides on-the-fly formatting. Chordie does not index songs against artists'/composers' will. To remove this song please click here.

Text color:
Chord color:
Chord grids: 
Font size:    
Page size: 

C Em G
Rate #3 of 3 versions

Jango Player

Login - add to songbook

SHARE PAGE  




You need to log in to post comments