Guitar Tabs, Chords and Lyrics
Server problems seems to be fixed. Chordie has been experiencing problems with songs disappearing. These issues now seems to be fixed, but still verifying the fix. If you find anything strange, please email admin@chordie.com.


Nothing Is Easy  The Whigs

 
 ----------------------------------------------------------------------------

Nothing Is Easy - The Whigs
 
 ----------------------------------------------------------------------------

Tabbed by: adslam3
Second time tabbing this...not sure why it was rejected. Slight changes
made.
There is a CHORDS version at the bottom with LYRICS
Tuning: Standard
I'm not showing how many times each part is played, but strumming
is close, you can figure it out, it's not a hard song.
INTRO VERSES (0:10-0:42)(0:59-1:29)(2:37-END) song end on G
[G] [G] [F] [Em] [Dm]  
 
 e|--3-----|--3-3-3-3-1-1-1-1-0-0-0-0-1-1-1-1--------------------------------|
 B|--3-----|--3-3-3-3-1-1-1-1-0-0-0-0-3-3-3-3--------------------------------|
 G|--0--x16|--0-0-0-0-2-2-2-2-0-0-0-0-2-2-2-2--------------------------------|
 D|--0-----|--0-0-0-0-3-3-3-3-2-2-2-2-0-0-0-0--------------------------------|
 A|--2-----|--2-2-2-2-3-3-3-3-2-2-2-2----------------------------------------|
 E|--3-----|--3-3-3-3-1-1-1-1-0-0-0-0----------------------------------------|

CHORUS (0:43-0:58)(1:30-2:26)
[C] [Am] [C] [Am] [G] [F] [G] [F]  
 
 e|-0-0-0-0-0-0-0-0-0-0-0-0-0-0-0-0-3-3-3-3-1-1-1-1-3-3-3-3-1-1-1-1----------|
 B|-1-1-1-1-1-1-1-1-1-1-1-1-1-1-1-1-3-3-3-3-1-1-1-1-3-3-3-3-1-1-1-1----------|
 G|-0-0-0-0-2-2-2-2-0-0-0-0-2-2-2-2-0-0-0-0-2-2-2-2-0-0-0-0-2-2-2-2----------|
 D|-2-2-2-2-2-2-2-2-2-2-2-2-2-2-2-2-0-0-0-0-3-3-3-3-0-0-0-0-3-3-3-3----------|
 A|-3-3-3-3-0-0-0-0-3-3-3-3-0-0-0-0-2-2-2-2-3-3-3-3-2-2-2-2-3-3-3-3----------|
 E|-0-0-0-0---------0-0-0-0---------3-3-3-3-1-1-1-1-3-3-3-3-1-1-1-1----------|

NOTE: At 2:26, you are going to end on the first G of the chorus then when
the music starts up again at 2:29 you play the G - F - G - F pattern to
end the chorus.
SOLO RIFF 1 during chorus(1:55-2:202)(2:11-2:18)
 
 e|------------3------------0-------------------------------------------------|
 B|--3h5-3-0---3--3h5-3-0---1-------------------------------------------------|
 G|----------5-0----------5-0-------------------------------------------------|
 D|------------0------------2-------------------------------------------------|
 A|------------2------------3-------------------------------------------------|
 E|------------3------------0-------------------------------------------------|

SOLO RIFF 2(2:31)at end of chorus- listen to get the rhythm
 
 e|--------------------------------------------------------------------------|
 B|--3/9/5/9/11/12-----------------------------------------------------------|
 G|--------------------------------------------------------------------------|
 D|--------------------------------------------------------------------------|
 A|--------------------------------------------------------------------------|
 E|--------------------------------------------------------------------------|

Solo riff 2 may be on slide guitar.
CHORDS VERSION:
INTRO: G
VERSE
[G]Oh the weeds of my [F]head, I'm combing them [Em]down. The shiny brown [Dm]shoes,
Arriving [G]again, I guess[F], arriving ag[Em]ain, I guess.[Dm]
And [G]she's a regular [F]broad alone in her [Em]room. You're right, I'm there [Dm]too,
Arriving [G]again, I guess[F], arriving ag[Em]ain, I guess.[Dm]
Oh.
CHORUS 1
[C] [Am] [C] [Am] [G] [F] [G] [F] 
VERSE 2
It's [G]easy to see why you k[F]now where I am.
I [Em]run on my tiptoes to [Dm]find you again
And I [G]will,[F] and I [Em]will.[Dm]
The [G]scratch on my back means you [F]know where I am.
I [Em]run on my tiptoes to [Dm]find you again,
And I [G]will,[F] and I [Em]will.[Dm]
Oh.
CHOURS
[C] [Am] [C] [Am] [G] [F] [G] [F] 
[C] Well nothing is [Am]easy.
C Am G (SOLO RIFF 1)F G F
Don't you know nothing's not the easy way out?
[C] Well nothing is [Am]easy.
C Am G (SOLOR RIFF 1)F G F
Don't you know nothing's not the easy way out?
[C] Well nothing is [Am]easy.
C Am G (Pause)
Don't you know nothing's not the easy way out?
G F (SOLO RIFF 2) G F
VERSE 3
[G]Oh me in my [F]bed and you in the [Em]ground. You're lying there [Dm]still,
Arriving ag[G]ain, I guess,[F] arriving ag[Em]ain, I guess.[Dm]
It's e[G]asy to see why you k[F]now where I am.
I [Em]run on my tiptoes to [Dm]find you again,
And I [G]will,[F] and I [Em]will.[Dm]
-Keep repeating the same G - F - Em - Dm pattern until the end.
Finish on G.
************************************
| / slide up
| \ slide down
| h hammer-on
| p pull-off
| ~ vibrato
************************************

Important: The song above is NOT stored on the Chordie server. The original song is hosted at www.guitaretab.com. Chordie works as a search engine and provides on-the-fly formatting. Chordie does not index songs against artists'/composers' will. To remove this song please click here.

Text color:
Chord color:
Chord grids: 
Font size:    
Page size: 

Am C Dm Em F G
Rate #0 of 2 versions

Login - add to songbook

SHARE PAGE  




You need to log in to post comments