Guitar Tabs, Chords and Lyrics
Server problems seems to be fixed. Chordie has been experiencing problems with songs disappearing. These issues now seems to be fixed, but still verifying the fix. If you find anything strange, please email admin@chordie.com.


Absolution Day  Theocracy

ABSOLUTION DAY
As recorded by Theocracy
(From the 2008 Album MIRROR OF SOULS)
Words and Music by Matt Smith, Jonathan Hinds, Seth Filkins
Transcribed by Yoykex plethera@web.de
D#5VII C#5 B5 D#5
x 7 9 9 x x x 5 7 7 x x x 3 5 5 x x 0 2 2 x x x
3 5 [F#5]5 x x x x 2 [A#5]4 4 x x 1 3 [E5]3 x x x x 0 [G#5]2 2 x x
x 5 [C#]4 x x x x [C#sus4]5 5 x x x 2 4 [E#5]4 x x x 2 4 [Fm]4 2 2 2
x [Absus2]0 2 2 0 0 x [Dbsus2]x 0 2 3 0 0 2 [Eb]2 1 0 0 2 4 [F5]4 x x x
Db5 Eb5 Ab5V Eb/G
x 5 7 7 x x x 7 9 9 x x 5 7 7 x x x 4 7 x x x x
x 6 [D5]8 8 x x 4 6 [G5]6 x x x 6 8 [A5]8 x x x x 4 [C5]6 6 x x
Gtr I (D# G# C# F# A# D#) - 'Lead Guitar 1'
Gtr II (D# G# C# F# A# D#) - 'Lead Guitar 2'
Gtr III (D# G# C# F# A# D#) - 'Rhythm Guitar 1'
Gtr IV (D# G# C# F# A# D#) - 'Rhythm Guitar 2'
Gtr V (D# G# C# F# A# D#) - '12-string Acoustic'
Gtr VI (D# G# C# F# A# D#) - 'Clean Electric'
Intro - 0:00
Q=174
N.C.(D#5) N.C.(E5)
[4/4] Gtrs I, II
S S S S S S S S S S S S S S S S S S S S S S S S S S S S S S S S
 
 |-7p0--8p0-7p0-5p0-7p0--8p0-7p0-5p0-|-7p0--8p0-7p0-5p0-7p0--8p0-7p0-5p0--|
 |-8p0-10p0-8p0-7p0-8p0-10p0-8p0-7p0-|-8p0-10p0-8p0-7p0-8p0-10p0-8p0-7p0--|
 |-----------------------------------|------------------------------------|
 |-----------------------------------|------------------------------------|
 |-----------------------------------|------------------------------------|
 |-----------------------------------|------------------------------------|

|
| Gtr III
 
 | PM------------------------------------------------------------------|

| S S S S S S S S S S S S S S S S S S S S S S S S S S S S S S S S
 
 |-----------------------------------|------------------------------------|
 |-----------------------------------|------------------------------------|
 |-----------------------------------|------------------------------------|
 |-----------------------------------|------------------------------------|
 |-----------------------------------|------------------------------------|
 |-0-0--0-0-0-0-0-0-0-0--0-0-0-0-0-0-|-1-1--1-1-1-1-1-1-1-1--1-1-1-1-1-1--|

N.C.(E#5) N.C.(F#5)
[4/4] S S S S S S S S S S S S S S S S S S S S S S S S S S S S S S S S
 
 |-7p0--8p0-7p0-5p0-7p0--8p0-7p0-5p0-|-7p0--8p0-7p0-5p0-7p0--8p0-7p0-5p0--|
 |-8p0-10p0-8p0-7p0-8p0-10p0-8p0-7p0-|-8p0-10p0-8p0-7p0-8p0-10p0-8p0-7p0--|
 |-----------------------------------|------------------------------------|
 |-----------------------------------|------------------------------------|
 |-----------------------------------|------------------------------------|
 |-----------------------------------|------------------------------------|

|
 
 | PM------------------------------------------------------------------|

| S S S S S S S S S S S S S S S S S S S S S S S S S S S S S S S S
 
 |-----------------------------------|------------------------------------|
 |-----------------------------------|------------------------------------|
 |-----------------------------------|------------------------------------|
 |-----------------------------------|------------------------------------|
 |-----------------------------------|------------------------------------|
 |-2-2--2-2-2-2-2-2-2-2--2-2-2-2-2-2-|-3-3--3-3-3-3-3-3-3-3--3-3-3-3-3-3--|

N.C.(E5) N.C.(B)
[4/4] S S S S S S S S S S S S S S S S S S S S S S S S S S S S S S S S
 
 |-7p0--8p0-7p0-5p0-7p0--8p0-7p0-5p0-|-7p0--8p0-7p0-5p0-7p0--8p0-7p0-5p0--|
 |-8p0-10p0-8p0-7p0-8p0-10p0-8p0-7p0-|-8p0-10p0-8p0-7p0-8p0-10p0-8p0-7p0--|
 |-----------------------------------|------------------------------------|
 |-----------------------------------|------------------------------------|
 |-----------------------------------|------------------------------------|
 |-----------------------------------|------------------------------------|

|
 
 | PM------------------------------------------------------------------|

| S S S S S S S S S S S S S S S S S S S S S S S S S S S S S S S S
 
 |-----------------------------------|------------------------------------|
 |-----------------------------------|------------------------------------|
 |-----------------------------------|------------------------------------|
 |-----------------------------------|------------------------------------|
 |-7-7--7-7-7-7-7-7-7-7--7-7-7-7-7-7-|------------------------------------|
 |-----------------------------------|-8-8--8-8-8-8-8-8-8-8--8-8-8-8-8-8--|

N.C.(G#5) N.C.(F#5) N.C.(E#5)
[4/4] S S S S S S S S S S S S S S S S S S S S S S S S S S S S S S S S
 
 ||--7p0--8p0-7p0-5p0-7p0--8p0-7p0-5p0-|-7p0--8p0-7p0-5p0-7p0--8p0-7p0-5p0-|
 ||o-8p0-10p0-8p0-7p0-8p0-10p0-8p0-7p0-|-8p0-10p0-8p0-7p0-8p0-10p0-8p0-7p0-|
 ||------------------------------------|-----------------------------------|
 ||------------------------------------|-----------------------------------|
 ||o-----------------------------------|-----------------------------------|
 ||------------------------------------|-----------------------------------|

|
 
 | PM------------------------------------------------------------------|

| S S S S S S S S S S S S S S S S S S S S S S S S S S S S S S S S
 
 ||------------------------------------|-----------------------------------|
 ||o-----------------------------------|-----------------------------------|
 ||------------------------------------|-----------------------------------|
 ||------------------------------------|-----------------------------------|
 ||o-----------------------------------|-----------------------------------|
 ||--5-5--5-5-5-5-5-5-5-5--5-5-5-5-5-5-|-3-3--3-3-3-3-3-3-2-2--2-2-2-2-2-2-|

D#5VII C#5
E. S +E Q. +E S S E. S +E Q E E E
 
 |-7--0-(0)-12----(12)-10-12-|-10---8--(8)-7--5-7--8--||
 |-8--0-(0)-12----(12)-12-13-|-12--10-(10)-8--7-8-10-o||
 |---------------------------|------------------------||
 |---------------------------|------------------------||
 |---------------------------|-----------------------o||
 |---------------------------|------------------------||

|
| E. S +E Q. +E S S E. S +E Q E E E
 
 |---------------------------|------------------------||
 |---------------------------|-----------------------o||
 |---------------------------|------------------------||
 |-9--9-(9)--9-----(9)--9--9-|--7---7--(7)-7--7-7--7--||
 |-7--7-(7)--7-----(7)--7--7-|--5---5--(5)-5--5-5--5-o||
 |---------------------------|------------------------||

N.C.(G#5) N.C.(A#5)
[4/4] S S S S S S S S S S S S S S S S
 
 |-7p0--8p0-7p0-5p0-7p0--8p0-7p0-5p0-|
 |-8p0-10p0-8p0-7p0-8p0-10p0-8p0-7p0-|
 |-----------------------------------|
 |-----------------------------------|
 |-----------------------------------|
 |-----------------------------------|

|
 
 | PM---------------------------------

| S S S S S S S S S S S S S S S S
 
 |-----------------------------------|
 |-----------------------------------|
 |-----------------------------------|
 |-----------------------------------|
 |-----------------------------------|
 |-5-5--5-5-5-5-5-5-7-7--7-7-7-7-7-7-|

N.C.(B) N.C.(C#5)
S S S S S S S S S S S S S S S S
 
 |-7p0--8p0-7p0-5p0--7p=0--8p=0--7p=0--5p=0--|
 |-8p0-10p0-8p0-7p0--8p=0-10p=0--8p=0--7p=0--|
 |-------------------------------------------|
 |-------------------------------------------|
 |-------------------------------------------|
 |-------------------------------------------|

|
 
 |---------------------------------------|

| S S S S S S S S S S S S S S S S
 
 |-------------------------------------------|
 |-------------------------------------------|
 |-------------------------------------------|
 |-------------------------------------------|
 |-------------------------------------------|
 |-8-8--8-8-8-8-8-8-10-10-10-10-10-10-10-10--|

D#5VII C#5
E. S +E Q. +E S S E. S +E Q E E E
 
 ||--7--0-(0)-12----(12)-10-12-|-10---8--(8)-7--5-7--8-|
 ||o-8--0-(0)-12----(12)-12-13-|-12--10-(10)-8--7-8-10-|
 ||----------------------------|-----------------------|
 ||----------------------------|-----------------------|
 ||o---------------------------|-----------------------|
 ||----------------------------|-----------------------|

|
| E. S +E Q. +E S S E. S +E Q E E E
 
 ||----------------------------|-----------------------|
 ||o---------------------------|-----------------------|
 ||----------------------------|-----------------------|
 ||--9--9-(9)--9-----(9)--9--9-|--7---7--(7)-7--7-7--7-|
 ||o-7--7-(7)--7-----(7)--7--7-|--5---5--(5)-5--5-5--5-|
 ||----------------------------|-----------------------|

1.
[B5]E. S +E Q. +E S S [C#5] E. S +E Q E E E
 
 |-7--0-(0)-12----(12)-10-12-|-10---8--(8)-7--5-7--8---||
 |-8--0-(0)-12----(12)-12-13-|-12--10-(10)-8--7-8-10--o||
 |---------------------------|-------------------------||
 |---------------------------|-------------------------||
 |---------------------------|------------------------o||
 |---------------------------|-------------------------||

|
| E. S +E Q. +E S S E. S +E Q E E E
 
 |---------------------------|-------------------------||
 |---------------------------|------------------------o||
 |---------------------------|-------------------------||
 |-5--5-(5)--5-----(5)--5--5-|--7---7--(7)-7--7-7--7---||
 |-3--3-(3)--3-----(3)--3--3-|--5---5--(5)-5--5-5--5--o||
 |---------------------------|-------------------------||

2.
N.C.(G#5) N.C.(A#5) N.C.(B) N.C.(C#5)
[4/4] S S S S S S S S S S S S S S S S S S S S S S S S S S S S S S S S
 
 |-7p0--8p0-7p0-5p0-7p0--8p0-7p0-5p0-|-7p0--8p0-7p0-5p0-7p0--8p0-7p0-5p0--|
 |-8p0-10p0-8p0-7p0-8p0-10p0-8p0-7p0-|-8p0-10p0-8p0-7p0-8p0-10p0-8p0-7p0--|
 |-----------------------------------|------------------------------------|
 |-----------------------------------|------------------------------------|
 |-----------------------------------|------------------------------------|
 |-----------------------------------|------------------------------------|

|
 
 | PM------------------------------------------------------------------|

| S S S S S S S S S S S S S S S S S S S S S S S S S S S S S S S S
 
 |-----------------------------------|------------------------------------|
 |-----------------------------------|------------------------------------|
 |-----------------------------------|------------------------------------|
 |-----------------------------------|------------------------------------|
 |-----------------------------------|------------------------------------|
 |-5-5--5-5-5-5-5-5-5-5--5-5-5-5-5-5-|-3-3--3-3-3-3-3-3-2-2--2-2-2-2-2-2--|

Verse 1 & 2 - 0:33, 2:10
$
[D#5]Gtrs III, IV
 
 PM----------------------------------------------------|

E S S S S S S E S S S S S S E S S S S S S E S S S S E
 
 ||------------------------------|---------------------------|
 ||o-----------------------------|---------------------------|
 ||------------------------------|---------------------------|
 ||------------------------------|---------------------------|
 ||o-2-------------2-------------|-2-------------2---------2-|
 ||--0-0-0-0-0-0-0-0-0-0-0-0-0-0-|-0-0-0-0-0-0-0-0-0-0-0-0-0-|

[B5] [C#5]  
 
 PM----| PM----| PM----| PM----|

E S S S S E S S S S E E E S S S S E S S S S E E
 
 |-------------------------|-------------------------|
 |-------------------------|-------------------------|
 |-5---------5---------5-5-|-7---------7---------7-7-|
 |-5---------5---------5-5-|-7---------7---------7-7-|
 |-3-3-3-3-3-3-3-3-3-3-3-3-|-5-5-5-5-5-5-5-5-5-5-5-5-|
 |-------------------------|-------------------------|

[D#5]  
 
 PM----------------------------------------------------|

E S S S S S S E S S S S S S E S S S S S S E S S S S E
 
 |-----------------------------|----------------------------|
 |-----------------------------|----------------------------|
 |-----------------------------|----------------------------|
 |-----------------------------|----------------------------|
 |-2-------------2-------------|-2-------------2---------2--|
 |-0-0-0-0-0-0-0-0-0-0-0-0-0-0-|-0-0-0-0-0-0-0-0-0-0-0-0-0--|

[B5] [C#5]  
 
 PM----| PM----| PM----| PM----| PM|

E S S S S E S S S S E E E S S S S E S S S S E S S
 
 |-------------------------|---------------------------|
 |-------------------------|---------------------------|
 |-5---------5---------5-5-|-7---------7---------7-----|
 |-5---------5---------5-5-|-7---------7---------7-----|
 |-3-3-3-3-3-3-3-3-3-3-3-3-|-5-5-5-5-5-5-5-5-5-5-5-0-0-|
 |-------------------------|---------------------------|

F#5 B5 A#5 N.C.(D#5)
 
 PM| PM-------------------------------

H. E E H H S S S S S S S S S S S S S S S S
 
 |-------------|-----------|---------------------------------|
 |-------------|-----------|---------------------------------|
 |-------------|-5----4----|---------------------------------|
 |-5-----------|-5----4----|---------------------------------|
 |-5-------5-5-|-3----2----|---------------------------------|
 |-3-------3-3-|-----------|-0-0-0-0-3-3-0-0-5-5-0-0-7-7-0-0-|
 -------------------------------|

S S S S S S S S S S S S S S S S
 
 |----------------------------------|
 |----------------------------------|
 |----------------------------------|
 |----------------------------------|
 |----------------------------------|
 |-8-8-0-0-7-7-0-0-5-5-0-0-3-3-0-0--|

1. 2.,D.S.
[E5] [B5] [C#5] [C#5]  
 
 PM------------| PM------------|

W Q. E +Q Q S S S S S S S S E E Q S S S S S S S S H
 
 |----------|----------------|-------------------------||----------------------|
 |----------|----------------|------------------------o||----------------------|
 |----------|-5----5-(5)--5--|-----------------7-------||-----------------7----|
 |-3--------|-5----5-(5)--5--|-----------------7-------||-----------------7----|
 |-3--------|-3----3-(3)--3--|-5-5-5-5-5-5-5-5-5------o||-5-5-5-5-5-5-5-5-5----|
 |-1--------|----------------|-------------------------||----------------------|

Pre-Chorus 1&2 - 1:17,2:33
D#5VII C#D#5VII B5 A#B5 G#5 B5 C#5 C# C#suC#5
PM| PM| PM| PM PM PM PM PM
H E E S S +S S H E E E E H E E E E E E E E E E E E
 
 |--------------------|--------------|--------------|-----------------|
 |--------------------|--------------|--------------|-----------------|
 |-9------------------|-5------------|-2------------|-----------------|
 |-9----9-9-7s9-(9)---|-5----5-5-4s5-|-2----2-2-5---|-7---4---5---7---|
 |-7----7-7-5s7-(7)---|-3----3-3-2s3-|-0----0-0-3-5-|-5-5-5-5-5-5-5-5-|
 |--------------------|--------------|--------------|-----------------|

D#5VII C#D#5VII B5 A#B5 G#5 B5 C#5 C# C#suC#5
PM| PM| PM| PM PM PM PM PM
a H E E S S +S S H E E E E H E E E E E E E E E E E E
 
 |----------------------|--------------|--------------|------------------|
 |----------------------|--------------|--------------|------------------|
 |----------------------|-5------------|-2------------|------------------|
 |-7s9----9-9-7s9-(9)---|-5----5-5-4s5-|-2----2-2-5---|-7---4---5---7----|
 |-5s7----7-7-5s7-(7)---|-3----3-3-2s3-|-0----0-0-3-5-|-5-5-5-5-5-5-5-5--|
 |----------------------|--------------|--------------|------------------|

D#5VII
Gtr III
H H H. Q
 
 |----------------------------|---------------------------|
 |----------------------------|---------------------------|
 |-9\-------------------------|---------------------------|
 |-9\-------------------------|---------------------------|
 |-7\-------------------------|---------------------------|
 |----------------------------|----------------------12\--|

|
| Gtr IV
 
 | PM----| PM----| PM-------| PM----| PM|

| E S S S S E S S S S E S S S S E S S S S E S S Q
 
 |----------------------------|---------------------------|
 |-5----------7---------8-----|------7---------5----------|
 |-4--4-4-4-4-4-4-4-4-4-4-4-4-|-4--4-4-4-4-4-4-4-4-4--7\--|
 |----------------------------|---------------------------|
 |----------------------------|---------------------------|
 |----------------------------|---------------------------|

[B5]Gtrs III, IV
 
 PM----------------------------------------------------------|

E S S S S S S S S S S S S S S S S S S S S S S S S S S S S S S
 
 ||--------------------------------|---------------------------------|
 ||o-------------------------------|---------------------------------|
 ||--5-----------------------------|---------------------------------|
 ||--5-----------------------------|---------------------------------|
 ||o-3-3-3-3-3-3-3-3-3-3-3-3-3-3-3-|-3-3-3-3-3-3-3-3-3-3-3-3-3-3-3-3-|
 ||--------------------------------|---------------------------------|

1.
[F#5] [E#5] [D#5]  
 
 PM----------------| PM| PM--------------------|

E S S S S S S S S S S E S S E S S S S S S S S S S E E
 
 |-----------------------------|-----------------------------||
 |-----------------------------|----------------------------o||
 |-----------------------------|-----------------------------||
 |-5---------------------4-----|-2---------------------------||
 |-5---------------------4-----|-2--------------------------o||
 |-3-3-3-3-3-3-3-3-3-3-3-2-2-2-|-0-0-0-0-0-0-0-0-0-0-0-0-0---||

2.
[D#5]Gtr III
 
 PM------------------------|

E S S S S S S S S S S S S S S
 
 |-------------------------------|
 |-------------------------------|
 |-------------------------------|
 |-2-----------------------------|
 |-2-----------------------------|
 |-0-0-0-0-0-0-0-0-0-0-0-0-0-0-0-|

|
| Gtr IV
 
 | PM------------------------|

| E S S S S S S S S S S S S S S
 
 |-------------------------------|
 |-------------------------------|
 |-------------------------------|
 |-2-----------------------------|
 |-2-----------------------------|
 |-0-0-0-0-0-0-0-0-0-0-0-0-0-0-0-|

[B5] [C#5]  
 
 PM----| PM----| PM----------|

E S S S S E S S S S Q S S S S E S S E E Q
 
 |------------------------|--------------------------|
 |------------------------|--------------------------|
 |-5---------5---------5--|--------------------------|
 |-5---------5---------5--|--------------------------|
 |-3-3-3-3-3-3-3-3-3-3-3--|-5-5-5-5-5-5-5--5---------|
 |------------------------|--------------------------|

|
 
 | PM----| PM----| PM----------| ~~~

| E S S S S E S S S S Q S S S S E S S H
 
 |------------------------|--------------------------|
 |------------------------|--------------------------|
 |-5---------5---------5--|--------------------------|
 |-5---------5---------5--|--------------------------|
 |-3-3-3-3-3-3-3-3-3-3-3--|-5-5-5-5-5-5-5-[5]--------|
 |------------------------|--------------------------|

Chorus 1 & 2 - 1:45, 3:00
[F#5]Gtr I[A#5]
~~~
W Q. E +Q S E.
 
 ||--15-----------|-14----15-(15)--15s17--|
 ||o--------------|-----------------------|
 ||---------------|-----------------------|
 ||---------------|-----------------------|
 ||o--------------|-----------------------|
 ||---------------|-----------------------|

|
| Gtrs III, IV
| PM|
| H. E E W
 
 ||---------------|-----------------------|
 ||o--------------|-----------------------|
 ||---------------|--4--------------------|
 ||---5-----------|--4--------------------|
 ||o--5-------5-5-|--2--------------------|
 ||---3-------3-3-|-----------------------|

[D#5] ~~~[A#5]
W Q. E +E E E E
 
 |-15-----------|-14----15-(15)-17s22-22--|
 |--------------|-------------------------|
 |--------------|-------------------------|
 |--------------|-------------------------|
 |--------------|-------------------------|
 |--------------|-------------------------|

|
| PM|
| H. E E W
 
 |--------------|-------------------------|
 |--------------|-------------------------|
 |--------------|--4----------------------|
 |--2-----------|--4----------------------|
 |--2-------2-2-|--2----------------------|
 |--0-------0-0-|-------------------------|

[B5] ~~~~~~~~~~~[F#5] [C#5]
H. Q Q. E +E E E E W
 
 |-22-------22--|-22----20-(20)-19-19---|-----------|
 |--------------|-----------------------|-15--------|
 |--------------|-----------------------|-----------|
 |--------------|-----------------------|-----------|
 |--------------|-----------------------|-----------|
 |--------------|-----------------------|-----------|

|
| W W W
 
 |--------------|-----------------------|-----------|
 |--------------|-----------------------|-----------|
 |--5-----------|-----------------------|--7--------|
 |--5-----------|--5--------------------|--7--------|
 |--3-----------|--5--------------------|--5--------|
 |--------------|--3--------------------|-----------|

To Coda
[B5] S S S S S S S S [C#5] S S S S S S S S
 
 |-14----------14----------14----------14-------------||
 |----15-15-15----15-15-15----15-15-15----15-15-15---o||
 |----------------------------------------------------||
 |----------------------------------------------------||
 |---------------------------------------------------o||
 |----------------------------------------------------||

|
 
 | PM------| PM------|

| S S S S Q S S S S Q
 
 |----------------------------------------------------||
 |---------------------------------------------------o||
 |--------------5-----------------------7-------------||
 |--------------5-----------------------7-------------||
 |--3--3--3--3--3-----------5--5--5--5--5------------o||
 |----------------------------------------------------||

D.S. al Coda
B5 N.C. F#5
~~
W W W
 
 |-15--------|----------------|--------------------|
 |-----------|----------------|--------------------|
 |-----------|----------------|--------------------|
 |-----------|----------------|--------------------|
 |-----------|----------------|--------------------|
 |-----------|----------------|--------------------|

|
| PM----|
| W Q. E +Q Q Q S S S S E E Q
 
 |-----------|----------------|--------------------|
 |-----------|----------------|--------------------|
 |--5--------|----------------|--------------------|
 |--5--------|----------------|-5----------5-------|
 |--3--------|-3----2-(2)--0--|-5----------5-------|
 |-----------|----------------|-3--3-3-3-3-3-------|

&
D#5VII C#5
Gtrs I, II
E. S +E Q. +E S S E. S +E Q E E E
 
 ||--7--0-(0)-12----(12)-10-12-|-10---8--(8)-7--5-7--8-|
 ||o-8--0-(0)-12----(12)-12-13-|-12--10-(10)-8--7-8-10-|
 ||----------------------------|-----------------------|
 ||----------------------------|-----------------------|
 ||o---------------------------|-----------------------|
 ||----------------------------|-----------------------|

|
| Gtrs III, IV
| E. S +E Q. +E S S E. S +E Q E E E
 
 ||----------------------------|-----------------------|
 ||o---------------------------|-----------------------|
 ||----------------------------|-----------------------|
 ||--9--9-(9)--9-----(9)--9--9-|--7---7--(7)-7--7-7--7-|
 ||o-7--7-(7)--7-----(7)--7--7-|--5---5--(5)-5--5-5--5-|
 ||----------------------------|-----------------------|

1.
[B5]E. S +E Q. +E S S [C#5] E. S +E Q E E E
 
 |-7--0-(0)-12----(12)-10-12-|-10---8--(8)-7--5-7--8---||
 |-8--0-(0)-12----(12)-12-13-|-12--10-(10)-8--7-8-10--o||
 |---------------------------|-------------------------||
 |---------------------------|-------------------------||
 |---------------------------|------------------------o||
 |---------------------------|-------------------------||

|
| E. S +E Q. +E S S E. S +E Q E E E
 
 |---------------------------|-------------------------||
 |---------------------------|------------------------o||
 |---------------------------|-------------------------||
 |-5--5-(5)--5-----(5)--5--5-|--7---7--(7)-7--7-7--7---||
 |-3--3-(3)--3-----(3)--3--3-|--5---5--(5)-5--5-5--5--o||
 |---------------------------|-------------------------||

2.
N.C.(G#5) N.C.(A#5) N.C.(B) N.C.(C#5)
[4/4] S S S S S S S S S S S S S S S S S S S S S S S S S S S S S S S S
 
 |-7p0--8p0-7p0-5p0-7p0--8p0-7p0-5p0-|-7p0--8p0-7p0-5p0-7p0--8p0-7p0-5p0--|
 |-8p0-10p0-8p0-7p0-8p0-10p0-8p0-7p0-|-8p0-10p0-8p0-7p0-8p0-10p0-8p0-7p0--|
 |-----------------------------------|------------------------------------|
 |-----------------------------------|------------------------------------|
 |-----------------------------------|------------------------------------|
 |-----------------------------------|------------------------------------|

|
 
 | PM------------------------------------------------------------------|

| S S S S S S S S S S S S S S S S S S S S S S S S S S S S S S S S
 
 |-----------------------------------|------------------------------------|
 |-----------------------------------|------------------------------------|
 |-----------------------------------|------------------------------------|
 |-----------------------------------|------------------------------------|
 |-----------------------------------|------------------------------------|
 |-5-5--5-5-5-5-5-5-5-5--5-5-5-5-5-5-|-3-3--3-3-3-3-3-3-2-2--2-2-2-2-2-2--|

Interlude 1 - 3:33
N.C.(D#5)
~~~~~~~~~~~~~~~~~~~~~~~~~~~~~~
W +H +Q Q
 
 |-7-----------------------|-(7)----(7)\-----|
 |-8-----------------------|-(8)----(8)\-----|
 |-------------------------|-----------------|
 |-------------------------|-----------------|
 |-------------------------|-----------------|
 |-------------------------|-----------------|

|
 
 | PM----------------| PM

| S S S S S S S S E E E E W
 
 |-------------------------|-----------------|
 |-------------------------|-----------------|
 |-------------------------|-----------------|
 |-------------------------|-----------------|
 |-------------------------|-----------------|
 |-0-0-0-0-0-0-0-0-0-0---0-|-----------------|
 PM----------------| PM PM--| PM----|

S S S S S S S S E E E E E S S E E S S S S Q
 
 |-------------------------|------------------------|
 |-------------------------|------------------------|
 |-------------------------|------------------------|
 |-------------------------|------------------------|
 |-------------------------|------------------------|
 |-0-0-0-0-0-0-0-0-0-0---0-|---0-0-0---0-0-0-0-2b3--|
 PM----------------| PM

S S S S S S S S E E E E W
 
 |-------------------------|------|
 |-------------------------|------|
 |-------------------------|------|
 |-------------------------|------|
 |-------------------------|------|
 |-0-0-0-0-0-0-0-0-0-0---0-|------|
 PM----------------| PM PM---------------------

S S S S S S S S E E E E E S S E S S E S S E S S
 
 ||--------------------------|-------------------------|
 ||o-------------------------|-------------------------|
 ||--------------------------|-------------------------|
 ||--------------------------|-------------------------|
 ||o-------------------------|-------------------------|
 ||--0-0-0-0-0-0-0-0-0-0---0-|---0-0-0-0-0-0-0-0-0-0-0-|
 -------------------| PM PM--| PM----|

S S S S S S S S E E E E E S S E E S S S S Q
 
 |-------------------------|--------------------------||
 |-------------------------|-------------------------o||
 |-------------------------|--------------------------||
 |-------------------------|--------------------------||
 |-------------------------|-------------------------o||
 |-0-0-0-0-0-0-0-0-0-0---0-|---0-0-0---0-0-0-0-2b3----||
 PM----------------| PM PM--------------|

S S S S S S S S E E E E E S S E S S E S S E E
 
 |-------------------------|-----------------------|
 |-------------------------|-----------------------|
 |-------------------------|-----------------------|
 |-------------------------|-----------------------|
 |-------------------------|-----------------------|
 |-0-0-0-0-0-0-0-0-0-0---0-|---0-0-0-0-0-0-0-0-0---|

Bridge 1 - 3:55
slower Q=80
[Fm]Gtrs V, VI[Absus2]
S S S S +S S Q E E E S S S S S S E S S S S S S S S
 
 ||-------------------------|-----------------------0-------|
 ||o---------------2--------|---------2-----------0---0-----|
 ||--------2-(2)------2-----|-------2---2-------2-------2---|
 ||------4-------4------4---|-----4-------4---2-----------0-|
 ||o---4------------------4-|---4-----------0---------------|
 ||--2----------------------|-2-----------------------------|

[Dbsus2]S S S S +S S S S +H [Eb]S S S S +S S E +H
 
 |-------0-(0)-----(0)-(0)----|-------------------------||
 |-----3-------3--------------|---------------0-(0)----o||
 |---2-----------2------------|-------1-(1)-------------||
 |-0--------------------------|-----2-------2-----------||
 |----------------------------|---2--------------------o||
 |----------------------------|-0-----------------------||

Interlude 2 - 4:19
a tempo Q=174
N.C.(F5)
Gtrs III, IV
 
 PM-------------------------------------

E E E S S E E E E E E E S S E E E E
 
 |-------------------|-------------------|
 |-------------------|-------------------|
 |-------------------|-------------------|
 |-------------------|-------------------|
 |-------------------|-------------------|
 |-2-0-2-0-0-2-0-2-0-|-2-0-2-0-0-2-0-2-0-|

N.C.(Ab5)
 
 -------------------------------------|

E E E S S E E E E E E E S S E E E E
 
 |-------------------|--------------------|
 |-------------------|--------------------|
 |-------------------|--------------------|
 |-------------------|--------------------|
 |-------------------|--------------------|
 |-2-0-2-0-0-2-0-2-0-|-5-0-5-0-0-5-0-5-0--|

N.C.(Db5)
 
 PM-------------------------------------

E E E S S E E E E E E E S S E E E E
 
 |-------------------|-------------------|
 |-------------------|-------------------|
 |-------------------|-------------------|
 |-------------------|-------------------|
 |-5-0-5-0-0-5-0-5-0-|-5-0-5-0-0-5-0-5-0-|
 |-------------------|-------------------|

N.C.(Eb5)
 
 -------------------------------------------------|

E E E E E E E E S S S S S S S S S S S S S S S S
 
 |-----------------|---------------------------------|
 |-----------------|---------------------------------|
 |-----------------|---------------------------------|
 |-----------------|---------------------------------|
 |-7---7---7---7---|-7-7-5-5-4-4-5-5-4-4-------------|
 |---0---0---0---0-|---------------------7-7-5-5-4-4-|

Guitar Solo - 4:33
[F5]Gtr I[Db5]
~ ~
[B] [E] [E] [E] [E] [B] [E] [E] [E] [E]  
 
 |------------------------------|-----------------------------|
 |-7-----------7---7---10---7---|-----------------------------|
 |------------------------------|-7-----------7---7---9---6---|
 |------------------------------|-----------------------------|
 |------------------------------|-----------------------------|
 |------------------------------|-----------------------------|

|
| Gtrs III, IV
 
 | PM----| PM-------------| PM----| PM------------|

| E S S S S E S S S S S S S S E S S S S E S S S S S S S S
 
 |------------------------------|-----------------------------|
 |------------------------------|-----------------------------|
 |------------------------------|-7---------7-----------------|
 |-4---------4------------------|-7---------7-----------------|
 |-4---------4------------------|-5-5-5-5-5-5-5-5-5-5-5-5-5-5-|
 |-2-2-2-2-2-2-2-2-2-2--2-2-2-2-|-----------------------------|

Eb5 Ab5V Eb/G
~~
Q. E Q Q Q E E Q E E
 
 |------------------------------|---------------------------|
 |------------------------------|---------------------------|
 |--------------9---------------|-6-----7---6---------------|
 |-9----------9---------9-------|-------------9-----7-------|
 |------------------------------|---------------------------|
 |------------------------------|---------------------------|

|
 
 | PM----| PM------------|

| E S S S S E S S S S S S S S E S S S S E E S S S S S S
 
 |------------------------------|---------------------------|
 |------------------------------|---------------------------|
 |-9----------9-----------------|---------------------------|
 |-9----------9-----------------|-7---------7---------------|
 |-7--7-7-7-7-7-7-7-7-7-7-7-7-7-|-7---------7-7-------------|
 |------------------------------|-5-5-5-5-5-5-4-4-4-4-4-4-4-|

[F5] [Db5]  
 
 PM--------------------------------------| PM------|

[E] [E] [E] [E] [E] [E] [E] [E] [E] [E] [E] [E] [E] [E] [E] [E]  
 
 |-----------------------------|-----------------------------|
 |-----------------------------|-----------------------------|
 |-----------4-7---6---4-------|-------6---7-9---7---6-------|
 |-4-6---7-----------------7---|-7-9---------------------9---|
 |-----------------------------|-----------------------------|
 |-----------------------------|-----------------------------|

|
 
 | PM----| PM------------| PM----| PM------------|

| E S S S S E S S S S S S S S E S S S S E S S S S S S S S
 
 |-----------------------------|-----------------------------|
 |-----------------------------|-----------------------------|
 |-----------------------------|-7---------7-----------------|
 |-4---------4-----------------|-7---------7-----------------|
 |-4---------4-----------------|-5-5-5-5-5-5-5-5-5-5-5-5-5-5-|
 |-2-2-2-2-2-2-2-2-2-2-2-2-2-2-|-----------------------------|

Eb5 N.C.(Eb5)
 
 PM------| PM------------------------------------------|

E E S S E E E E E S S S S S S S S S S S S S S S S
 
 |-----------------------------|----------------------------------|
 |-----------------------------|-------------------------7-9-9-7--|
 |-------------9---7---6-------|-9-9-7-6-6---6-6-7-7-9-9----------|
 |-9-7---6-6-6-------------9---|-----------9----------------------|
 |-----------------------------|----------------------------------|
 |-----------------------------|----------------------------------|

|
 
 | PM----| PM----------------------------------------------|

| E S S S S E S S S S S S S S S S S S S S S S S S S S S S S S
 
 |-----------------------------|----------------------------------|
 |-----------------------------|----------------------------------|
 |-9---------9-----------------|----------------------------------|
 |-9---------9-----------------|----------------------------------|
 |-7-7-7-7-7-7-7-7-7-7-7-7-7-7-|-7-7-5-5-4-4-5-5-4-4--------------|
 |-----------------------------|---------------------7-7-5-5-4-4--|

[F5] ~~~ [Db5] ~~~
H. E E H. E E
 
 |--------------------------------|--------------------------------|
 |-10--------------------9---10---|-12--------------------10---9---|
 |--------------------------------|--------------------------------|
 |--------------------------------|--------------------------------|
 |--------------------------------|--------------------------------|
 |--------------------------------|--------------------------------|

|
 
 | PM----| PM-------------| PM----| PM-------------|

| E S S S S E S S S S S S S S E S S S S E S S S S S S S S
 
 |--------------------------------|--------------------------------|
 |--------------------------------|--------------------------------|
 |--------------------------------|--7----------7------------------|
 |--4----------4------------------|--7----------7------------------|
 |--4----------4------------------|--5--5-5-5-5-5-5-5-5-5--5-5-5-5-|
 |--2--2-2-2-2-2-2-2-2-2-2-2--2-2-|--------------------------------|

Eb5 Ab5V Eb/G
~ PM
W E E E E E E E E
 
 |-----------------------------|------------------------------|
 |-----------------------------|-10-9-------9-10-9---12---9---|
 |-9---------------------------|--------9---------------------|
 |-----------------------------|------------------------------|
 |-----------------------------|------------------------------|
 |-----------------------------|------------------------------|

|
 
 | PM----| PM------------|

| E S S S S E S S S S S S S S E S S S S E E S S S S S S
 
 |-----------------------------|------------------------------|
 |-----------------------------|------------------------------|
 |-9---------9-----------------|------------------------------|
 |-9---------9-----------------|--7---------7-----------------|
 |-7-7-7-7-7-7-7-7-7-7-7-7-7-7-|--7---------7--7--------------|
 |-----------------------------|--5-5-5-5-5-5--4-4-4--4-4-4-4-|

[F5]~~[Db5]
H. E E H Q. +S +S
 
 |-9-------------------------9---|-10-----------12b14============(12)r(12)-|
 |----------------------12-------|-----------------------------------------|
 |-------------------------------|-----------------------------------------|
 |-------------------------------|-----------------------------------------|
 |-------------------------------|-----------------------------------------|
 |-------------------------------|-----------------------------------------|

|
 
 | PM----| PM-------------| PM----| PM-------------------|

| E S S S S E S S S S S S S S E S S S S E S S S S S S S S
 
 |-------------------------------|-----------------------------------------|
 |-------------------------------|-----------------------------------------|
 |-------------------------------|--7---------7----------------------------|
 |-4----------4------------------|--7---------7----------------------------|
 |-4----------4------------------|--5-5-5-5-5-5--5-----5-5-5-5-5---5----5--|
 |-2--2-2-2-2-2-2-2-2-2--2-2-2-2-|-----------------------------------------|

Eb5 N.C.(Eb5)
 
 ~~~ PM---------------------------|

H. Q S S S S S S S S S S S S E E
 
 |-12--------------------12\-------|-12-12-10-10-9-10-10-9-9--------------------|
 |---------------------------------|-------------------------12-12-12-10---9----|
 |---------------------------------|--------------------------------------------|
 |---------------------------------|--------------------------------------------|
 |---------------------------------|--------------------------------------------|
 |---------------------------------|--------------------------------------------|

|
 
 | PM----| PM----------------------------------------------------------|

| E S S S S E S S S S S S S S S S S S S S S S S S S S S S S S
 
 |---------------------------------|--------------------------------------------|
 |---------------------------------|--------------------------------------------|
 |--9----------9-------------------|--------------------------------------------|
 |--9----------9-------------------|--------------------------------------------|
 |--7--7-7-7-7-7-7-7-7-7--7--7-7-7-|--7--7--5--5-4--4--5-5-4--4-----------------|
 |---------------------------------|-----------------------------7--7--5-5-4-4--|

Bridge 2 - 4:52
[G#5]Gtr I[C#5]
W +W W
| |
o /
Gtrs III, IV
PM| PM| PM|
H. E E H. E E H. E E
 
 ||--------------|--------------|-------------|
 ||o-------------|--------------|-------------|
 ||--2-----------|--2-----------|-5-----------|
 ||--2-------2-2-|--2-------2-2-|-5-------5-5-|
 ||o-0-------0-0-|--0-------0-0-|-3-------3-3-|
 ||--------------|--------------|-------------|

1. 2.
[E5] [F#5]  
 
 PM| PM--------------------|

W +H. E E W +H. E E E E E E E E E E
 
 |----------|--------------|----------|---------------||------------------|
 |----------|--------------|----------|--------------o||------------------|
 |----------|--------------|----------|---------------||------------------|
 |-3--------|-(3)----------|-5--------|-(5)-----------||------------------|
 |-3--------|-(3)------3-3-|-5--------|-(5)------5-5-o||-5-5-5-5-5-5-5-5--|
 |-1--------|-(1)------1-1-|-3--------|-(3)------3-3--||-3-3-3-3-3-3-3-3--|

[B5]  
 
 PM--| PM------| PM--------| PM------| PM|

E S S E S S E S S E S S E S S E S S E S S E S S
 
 ||--------------------------|-------------------------|
 ||o-------------------------|-------------------------|
 ||--------5-----------5-----|-------5-----------5-----|
 ||--------5-----------5-----|-------5-----------5-----|
 ||o-3-3-3-3-3-3-3-3-3-3-3-3-|-3-3-3-3-3-3-3-3-3-3-3-3-|
 ||--------------------------|-------------------------|

PM| PM| PM| PM| [D5] PM| PM| PM| PM|
E S S E S S E S S E S S E S S E S S E S S E S S
 
 |-------------------------|-------------------------|
 |-------------------------|-------------------------|
 |-5-----5-----5-----5-----|-8-----8-----8-----8-----|
 |-5-----5-----5-----5-----|-8-----8-----8-----8-----|
 |-3-3-3-3-3-3-3-3-3-3-3-3-|-6-6-6-6-6-6-6-6-6-6-6-6-|
 |-------------------------|-------------------------|

[G5]  
 
 PM--| PM------| PM--------| PM------| PM|

E S S E S S E S S E S S E S S E S S E S S E S S
 
 |-------------------------|-------------------------|
 |-------------------------|-------------------------|
 |-------------------------|-------------------------|
 |-------6-----------6-----|-------6-----------6-----|
 |-------6-----------6-----|-------6-----------6-----|
 |-4-4-4-4-4-4-4-4-4-4-4-4-|-4-4-4-4-4-4-4-4-4-4-4-4-|

1.
[A5]  
 
 PM--| PM------| PM--------| PM------| PM|

E S S E S S E S S E S S E S S E S S E S S E S S
 
 |-------------------------|--------------------------||
 |-------------------------|-------------------------o||
 |-------------------------|--------------------------||
 |-------8-----------8-----|-------8-----------8------||
 |-------8-----------8-----|-------8-----------8-----o||
 |-6-6-6-6-6-6-6-6-6-6-6-6-|-6-6-6-6-6-6-6-6-6-6-6-6--||

2.
 
 PM--| PM------| PM|

E S S E S S E S S E S S E E Q Q Q
 
 |-------------------------|----------------|
 |-------------------------|----------------|
 |-------------------------|----------------|
 |-------8-----------8-----|-8--------------|
 |-------8-----------8-----|-8--------------|
 |-6-6-6-6-6-6-6-6-6-6-6-6-|-6---------13\--|

Chorus 3 - 5:36
[F#5]Gtr I[A#5]
~~~
W Q. E +Q S E.
 
 ||--15-----------|-14----15-(15)--15s17--|
 ||o--------------|-----------------------|
 ||---------------|-----------------------|
 ||---------------|-----------------------|
 ||o--------------|-----------------------|
 ||---------------|-----------------------|

|
| Gtrs III, IV
| PM|
| H. E E W
 
 ||---------------|-----------------------|
 ||o--------------|-----------------------|
 ||---------------|--4--------------------|
 ||---5-----------|--4--------------------|
 ||o--5-------5-5-|--2--------------------|
 ||---3-------3-3-|-----------------------|

[D#5] ~~~[A#5]
W Q. E +E E E E
 
 |-15-----------|-14----15-(15)-17s22-22--|
 |--------------|-------------------------|
 |--------------|-------------------------|
 |--------------|-------------------------|
 |--------------|-------------------------|
 |--------------|-------------------------|

|
| PM|
| H. E E W
 
 |--------------|-------------------------|
 |--------------|-------------------------|
 |--------------|--4----------------------|
 |--2-----------|--4----------------------|
 |--2-------2-2-|--2----------------------|
 |--0-------0-0-|-------------------------|

[B5] ~~~~~~~~~~~[F#5] [C#5]
H. Q Q. E +E E E E W
 
 |-22-------22--|-22----20-(20)-19-19---|-----------|
 |--------------|-----------------------|-15--------|
 |--------------|-----------------------|-----------|
 |--------------|-----------------------|-----------|
 |--------------|-----------------------|-----------|
 |--------------|-----------------------|-----------|

|
| W W W
 
 |--------------|-----------------------|-----------|
 |--------------|-----------------------|-----------|
 |--5-----------|-----------------------|--7--------|
 |--5-----------|--5--------------------|--7--------|
 |--3-----------|--5--------------------|--5--------|
 |--------------|--3--------------------|-----------|

[B5] S S S S S S S S [C#5] S S S S S S S S
 
 |-14----------14----------14----------14-------------||
 |----15-15-15----15-15-15----15-15-15----15-15-15---o||
 |----------------------------------------------------||
 |----------------------------------------------------||
 |---------------------------------------------------o||
 |----------------------------------------------------||

|
 
 | PM------| PM------|

| S S S S Q S S S S Q
 
 |----------------------------------------------------||
 |---------------------------------------------------o||
 |--------------5-----------------------7-------------||
 |--------------5-----------------------7-------------||
 |--3--3--3--3--3-----------5--5--5--5--5------------o||
 |----------------------------------------------------||

Chorus 4 - 5:58
Ab5V C5
Gtr I
~~~
W Q. E +Q S E.
 
 ||--17-----------|-16----17-(17)--17s19--|
 ||o--------------|-----------------------|
 ||---------------|-----------------------|
 ||---------------|-----------------------|
 ||o--------------|-----------------------|
 ||---------------|-----------------------|

|
| Gtrs III, IV
| PM|
| H. E E W
 
 ||-

Important: The song above is NOT stored on the Chordie server. The original song is hosted at www.guitaretab.com. Chordie works as a search engine and provides on-the-fly formatting. Chordie does not index songs against artists'/composers' will. To remove this song please click here.

Text color:
Chord color:
Chord grids: 
Font size:    
Page size: 

A#5 A5 B B5 C# C#5 C5 D#5 D5 Db5 Dbsus2 E E5 Eb F#5 F5 Fm G#5 G5
Rate #1 of 1 versions

Jango Player

Login - add to songbook

SHARE PAGE  



You need to log in to post comments