Guitar Tabs, Chords and Lyrics
Major upgrade!! After one year development the new version of Chordie is now online! Please give feedback.


Raven of Dispersion  Therion

Therion "Raven of Dispersion"
Vovin
tabbed by: Drew Schinzel
4/17/00
Legend:
 
 -------

h hammer on
~ vibrato
\ slide down
C# tuning (every string down 1.5 steps). Listen to the CD for timing..
Chords used:
 
 |---|---|---|---|---|----|
 |---|---|---|---|---|----|
 |-2-|---|---|-5-|-7-|-10-|
 |-2-|-2-|-3-|-5-|-7-|-10-|
 |-0-|-2-|-3-|-3-|-5-|-8--|
 |---|-0-|-1-|---|---|----|

[A5] [E5] [F5] [C5] [D5] [F5i]  
Under the solo and during the verses, use an A5 E5 F5 E5 riff.
After the verse (1:04), just play the root note of each of those chords in the same order.
Next, at 2:08, play a C5 D5 F5i C5 progression.
That's it. repeat everything twice, the choir will come in, then end with the melody.
intro solo
 
 |-------------------------------19-17-19-16-19----19-------|
 |-10~----10--13--12~---9--10~------------------18----17----|
 |----------------------------------------------------------|
 |----------------------------------------------------------|
 |----------------------------------------------------------|
 |----------------------------------------------------------|
 |-19-17-19-16-19----19------19-17-19-16-19----19-------|
 |----------------18----17------------------18----17----|
 |------------------------------------------------------|
 |------------------------------------------------------|
 |------------------------------------------------------|
 |------------------------------------------------------|
 |--19-17-19-16-19----19------19-22~--20-20~--19-19-~--\17-17~---|
 |-----------------18----17--------------------------------------|
 |---------------------------------------------------------------|
 |---------------------------------------------------------------|
 |---------------------------------------------------------------|
 |---------------------------------------------------------------|
 |---------------------------------------------------|
 |-------17-------17-------17-17--15~--13~---12~-----|
 |-14-16----14-16----14-16---------------------------|
 |---------------------------------------------------|
 |---------------------------------------------------|
 |---------------------------------------------------|

ending melody 5:20
 
 |-----------------------------------------------------------------------|
 |------------------------------------------10--8--6--10--8--6-----------|
 |--9--7-----9--7------10--9--7---10--9--7----------------------7h9-9~---|
 |-------10-------10-----------------------------------------------------|
 |-----------------------------------------------------------------------|
 |-----------------------------------------------------------------------|


Important: The song above is NOT stored on the Chordie server. The original song is hosted at www.guitaretab.com. Chordie works as a search engine and provides on-the-fly formatting. Chordie does not index songs against artists'/composers' will. To remove this song please click here.

Text color:
Chord color:
Chord grids: 
Font size:    
Page size: 

A5 C5 D5 E5 F5
Rate #2 of 3 versions

Login - add to songbook

SHARE PAGE  




You need to log in to post comments