Guitar Tabs, Chords and Lyrics
Server problems seems to be fixed. Chordie has been experiencing problems with songs disappearing. These issues now seems to be fixed, but still verifying the fix. If you find anything strange, please email admin@chordie.com.


Vannesa  Thermo

ntro... guitarra 2
 
 E------------------|
 B------------------|

G-1h3p1-3h5p3-3p1--| se repite varias veces.
 
 D------------------|
 A------------------|
 E------------------| la primera guitarra entra a los 11 segundos

en: G# C D#... luego G# 2 tiempos y C y D#
de a un tiempo...luego kuando empieza a
gritar se repite G# x2 C D#
La segunda guitarra hace esto cuando
empieza la primera guitarra
 
 E------------------------|
 B------------------------|
 G---17----12----15-------|
 D----x-----x-----x-------|
 A---15----10----13-------|
 E------------------------|

y luego es algo asi
 
 E------------------------------------------------------|
 B------------------------------------------------------|
 G---17171717151515131313------12-----15----------------|
 D----x-x-x-x-x-x-x-x-x-x--x2---x-x8---x-x7-------------|
 A---15151515131313111111------10-----13----------------|
 E------------------------------------------------------|

nomas es de escuchar la rola.
[G#]Donde estas, espero que no olvides hoy tu pro[C]mesa
y vuelve ya.
[G#]se muy bien, que todavia es muy pronto pero[C] se tambien
[D#]voy a esperar.
y luego:
[G#]vuelve y[C#m]a y dam[G#]e un min[C#m]uto para
Demostrar que es verdad
 
 E--------------------------------|
 B--------------------------------|
 G---5-------------8--------------|
 D---x-x8----------X--X8----------| X2 es lo mismo nomas
 A---3-------------6--------------| cambia la letra
 E--------------------------------|

y la segunda lira hace esto
 
 E--------------------------------|
 B-----4-2-1-2-4------------------|
 G--------------------------------|
 D--------------------------------|X2
 A--------------------------------|
 E--------------------------------|

[F]Hoy quisiera ver tus [C#]ojos
Mirá[G#]ndome una vez má[G]s
[F]Y poder besar tus la[C#]bios
Y no[G] d[#]ejarte ja[G]más[F]
 
 E----------------|
 B----------------|
 G----------------| esto se toca en el minuto
 D----------------| 1:54 luego va c# D# G#
 A-1-----3-1------|
 E---4-1-----4----|

solo guitarra 1
 
 E------------------------------------------------------|
 B------------------------------------------------------|
 G---17171717151515131313------12-----15----------------|
 D----x-x-x-x-x-x-x-x-x-x--x2---x-x8---x-x7-------------|
 A---15151515131313111111------10-----13----------------|
 E------------------------------------------------------|

D[G#]onde estas[C#m], espero q[G#]ue no olvi[C#m]des hoy tu
promesa y vuelve ya.
 
 E--------------------------------|
 B--------------------------------|
 G---5-------------8--------------|
 D---x-x8----------X--X8----------| X2 es la mismo nomas
 A---3-------------6--------------| cambia la letra
 E--------------------------------|

[F]Hoy quisiera ver tus [C#]ojos
Mirá[G#]ndome una vez m[G]ás
[F]Y poder besar tus la[C#]bios
Y no[G#] dejarte jam[G]ás[F]
 
 E----------------|
 B----------------|
 G----------------|
 D----------------|
 A-1-----3-1------|
 E---4-1-----4----|

apartir de minuto 3:02
Piano
 
 E-----11-----------|
 B---------14-13----| varias veces.
 G-13------------13-|
 D------------------|
 A------------------|
 E------------------|

guitarra 1
 
 E--------------3--------|
 B---------4-------------|
 G-------5---5----5---5--|
 D-----6------------6----|esto se toca varias veses
 A-----------------------|
 E-----------------------|

para terminar es G# C D#...G#

Important: The song above is NOT stored on the Chordie server. The original song is hosted at www.guitaretab.com. Chordie works as a search engine and provides on-the-fly formatting. Chordie does not index songs against artists'/composers' will. To remove this song please click here.

Text color:
Chord color:
Chord grids: 
Font size:    
Page size: 

C C# C#m D# F G G#
Rate #2 of 2 versions

Jango Player

Login - add to songbook

SHARE PAGE  



You need to log in to post comments