Guitar Tabs, Chords and Lyrics
Major upgrade!! After one year development the new version of Chordie is now online! Please give feedback.


Soldier of Fortune  Thin Lizzy

 
 -------------------------------------------------------------------------------

Soldier of Fortune-Thin lizzy
 
 -------------------------------------------------------------------------------

Tabbed by:Jim Myers
Email:jemyers1975@yahoo.com
Tuning:EADGB
 
 e|-7------------7-------------------7--8---7-----------7--------------7------|
 B|-----8---10--------10---8----10-------------10---8--------8---10-----------|
 G|---------------------------------------------------------------------------|
 D|---------------------------------------------------------------------------|
 A|---------------------------------------------------------------------------|
 E|---------------------------------------------------------------------------|
 e|------------7-----------7-----------------7---8---7-----------7-----------7-|
 B|--5-/ 3---------8---10-----10----8---10--------------10---8-------8---10----|
 G|----------------------------------------------------------------------------|
 D|----------------------------------------------------------------------------|
 A|----------------------------------------------------------------------------|
 E|----------------------------------------------------------------------------|
 e|-12/-10---10--------10-----------------------------------------------------|
 B|---------------12-------13--12--10---12--13--12---10--------12------10--12-|
 G|-------------------------------------------------------12-------12---------|
 D|---------------------------------------------------------------------------|
 A|---------------------------------------------------------------------------|
 E|---------------------------------------------------------------------------|
 e|---------10-------10-------------------------------------------------------|
 B|-------------12-------13--12--10--12--13--12---10-------12------10---12----|
 G|--9/--7---------------------------------------------12------12-------------|
 D|---------------------------------------------------------------------------|
 A|---------------------------------------------------------------------------|
 E|---------------------------------------------------------------------------|
 e|-12/-10--------------------------------------------------------------------|
 B|---------------------------------------------------------------------------|
 G|---------------------------------------------------------------------------|
 D|---------------------------------------------------------------------------|
 A|---------------------------------------------------------------------------|
 E|---------------------------------------------------------------------------|

[G]A soldier of fortune came h[D]ome from war
[C]And wondered what he was fig[G]hting for
[G]This sad-eyed soldier, he b[D]roke down and cried
[C]Oh he was so brok[G]e up inside
[G]When will it end
[D]When will it end
[C]The bells toll
[G]For those about to die Intro SOlo
[G]The battle's over the wa[D]r is won
[C]But this soldier of fortune [G]he will carry on
[G]He will carry on when a[D]ll hope is gone
[C]He will carry [G]on
[G]He's trained to kill a[D]nd kill he will
[C]As we march a[G]long
[G]Singing just ano[D]ther soldier song
[C]Just another so[G]ldier song
[G]I am a soldier of fo[D]rtune
[C]Destined to keep o[G]n marching
[G]I can hear the pipers calling
[G]I am a soldier of f[D]ortune
[C]Destined to keep on [G]marching
[G]I can h[D]ear the p[C]ipers call[G]ing
| / slide up
| \ slide down
| h hammer-on
| p pull-off
| ~ vibrato
| + harmonic
| x Mute note
===============================================================================

Important: The song above is NOT stored on the Chordie server. The original song is hosted at www.guitaretab.com. Chordie works as a search engine and provides on-the-fly formatting. Chordie does not index songs against artists'/composers' will. To remove this song please click here.

Text color:
Chord color:
Chord grids: 
Font size:    
Page size: 

C D G
Rate #1 of 2 versions

Login - add to songbook

SHARE PAGE  




You need to log in to post comments