Guitar Tabs, Chords and Lyrics
Server problems seems to be fixed. Chordie has been experiencing problems with songs disappearing. These issues now seems to be fixed, but still verifying the fix. If you find anything strange, please email admin@chordie.com.


Love Song  Third Day

 
 -------------------------------------------------------------------------------

Love Song - Third Day
 
 -------------------------------------------------------------------------------

Tabbed by: Aquene :)
Tuning: Standard
Capo: 3rd Fret
Intro:
[Em] [C]  
 
 e|--------------------------------------------------------------------------------------|
 B|---------------0----------------------1-----------------------------------------------|
 G|------------0-------------------------0-----------------------------------------------|
 D|----------4------------0h2----0-------2------2----------------------------------------|
 A|-------2---------------0h2----0-------3------0h3--------------------------------------|
 E|----0---------------------------------------------------------------------------------|

[D] [G]  
 
 e|---------------------------3p2---------0h2----------2-----------3--------------------|
 B|------------------------3--------3-------------3----3-----------3--------------------|
 G|----------0----------2------------2-----------------2-----------0--------------------|
 D|----0h2----------0----------------------------------0-----------0--------------------|
 A|----------------------------------------------------------------2--------------------|
 E|-----------------------------------------------------------3----3--------------------|

[B7] [Em]  
 
 e|----------------2------------------------------0--|
 B|----------------0------------------------------0--|
 G|----------------2------------------------------0--|
 D|---------1------1------------------------------2--|
 A|---0h1h2--------2---------0h2------------------2--|
 E|------------------------------------0----------0--|

Verse 1:
[Em]I've heard it said that a[C] man would climb a mountain
[D]Just to be with the o[G]ne he l[B7]oves
[Em]How many times has he [C]broken that promise
[D]It has never been [G]done
I've never c[C]limbed the highest m[G]ountain
But I w[C]alked the hill of Calv[D]ary
Chorus:
Just to [G]be with you I would do [D]anything
There's no[C] price I would not [G]pay, [D]no
Just to [G]be with you I would give [D]everything
I would [C]give my life [Em]away, yeah[D]
Verse 2:
[Em]I've heard it said that a[C] man would swim the ocean
[D]Just to be with the [G]one he [B7]loves
[Em]Well all those dreams are an [C]empty emotion
[D]It can never be [G]done
I've never[C] swam the deepest[G] ocean
But I [C]walked upon the raging [D]sea
Chorus:
Just to [G]be with you I would do [D]anything
There's no[C] price I would not [G]pay, [D]no
Just to [G]be with you I would give [D]everything
I would [C]give my life [Em]away, yeah[D]
Bridge:
And I [Bm]know that you don't understand the [Em]fullness of my love
How I [C]died upon the cross for your [D]sins
And I [Bm]know that you don't realize how [Em]much I gave you
And I [C]promise I'd do it all [D]again
Last Chorus:
Just to [G]be with you I've done[D] everything
There's no [C]price I did not [G]pay, [D]no
Just to [G]be with you I gave [D]everything
Yes, I[C] gave my life a[Em]way, yeah[D]
I gave my life [Em]away, yeah[D]
Just to[G] be with you
Oh, jus[G]t to be with you

Important: The song above is NOT stored on the Chordie server. The original song is hosted at www.guitaretab.com. Chordie works as a search engine and provides on-the-fly formatting. Chordie does not index songs against artists'/composers' will. To remove this song please click here.

Text color:
Chord color:
Chord grids: 
Font size:    
Page size: 

B7 Bm C D Em G
Rate #2 of 21 versions

Jango Player

Login - add to songbook

SHARE PAGE  




You need to log in to post comments