Guitar Tabs, Chords and Lyrics
Update 25:10. 13:00. Site is back up running again. Songbooks are recovered. Woring on getting search back up..


Shipboard Cook  Third Eye Blind

Song: Shipboard Cook
Tabbed by (at TVCY): blinded91 (chords), slowmotion7 (intro and bridge)
Tuning: Standard
[F] [Am7] [C]  
 
 E-----------------|-----------------|-----------------|-----------------|
 B---1---1---1---1-|---1---1---1---1-|---1---1---1---1-|---1---1---1---1-|
 G-----0-------0---|-----0-------0---|-----0-------0---|-----0-------0---|
 D-3-------3-------|-2-------2-------|-----------------|-----------------|
 A-----------------|-----------------|-3-------3-------|-3-------3-------|
 E-----------------|-----------------|-----------------|-----------------|

| 1 + 2 + 3 + 4 + | 1 + 2 + 3 + 4 + | 1 + 2 + 3 + 4 + | 1 + 2 + 3 + 4 + |
[F] [Am7] [C]  
 
 E-----------------|-----------------|-----------------|-----------------|
 B---1---1---1---1-|---1---1---1---1-|---1---1---1---1-|---1---1---1---1-|
 G-----0-------0---|-----0-------0---|-----0-------0---|-----0-------0---|
 D-3-------3-------|-2-------2-------|-----------------|-----------------|
 A-----------------|-----------------|-3-------3-------|-3-------3-------|
 E-----------------|-----------------|-----------------|-----------------|

| 1 + 2 + 3 + 4 + | 1 + 2 + 3 + 4 + | 1 + 2 + 3 + 4 + | 1 + 2 + 3 + 4 + |
[G] [(add6)] [F] [(7)]  
 
 E-3-----0-----3---|---0-----3---0---|-1-----0-----1---|---0-----1---0---|
 B---0-----0-----0-|-----0-----0---0-|---1---- 1-----1-|-----1-----1---1-|
 G-----0-----0-----|-0-----0---------|-----2-----2-----|-2-----2---------|
 D-----------------|-----------------|-----------------|-----------------|
 A-----------------|-----------------|-----------------|-----------------|
 E-3---------------|-----------------|-1---------------|-----------------|

| 1 + 2 + 3 + 4 + | 1 + 2 + 3 + 4 + | 1 + 2 + 3 + 4 + | 1 + 2 + 3 + 4 + |
[C]  
 
 E-----------------|-----------------|
 B---1---1---1---1-|---1---1---1---1-|
 G-----0-------0---|-----0-------0---|
 D-----------------|-----------------|
 A-3-------3-------|-3-------3-------|
 E-----------------|-----------------|

| 1 + 2 + 3 + 4 + | 1 + 2 + 3 + 4 + |
[F]I wanna go to the [Am]ocean and send a [C]postcard of my loneliness
[F]Forgetting you is so [Am]elusive I run [C]away but it?s always this
You?re the [G]only one I [F]love
It?s always been yo[C]u[G]
And I w[F]ish I was conscripted in the [Am]merchant marines
[C]Shanghaied into service to sails and machines just to [G]stay alive, [F]oh
And my s[F]ister keeps it simple she?s a s[Am]hipboard cook
[C]She can run a line, but if you take a look, it's not [G]easy though[F]
'Cause I'm [Am]hoping you will find me
I keep [C]hoping you will find me
[Am]Hoping you will find me
I keep [C]hoping you will find me[G] [-] [F]
I'm always a [C]ghost[G] [-] [F]
[F]I tried your gypsy tarot readings, some [Am]sťance stunt
I [C]keep an open mind but I think it?s just a front
I want to [G]believe it though[F]
[F]My sister says "Forget her boy, that's [Am]all that you need"
She pitches [C]magical elixirs, potions full of mead
For a [G]broken heart
It's too [F]late for that
[C]And I try to keep it simple; I try to keep it true
But it?s [G]always been you; it?s [F]always been you
When you [C]sailor boys brag about the hearts that they broke
It was [G]all just a joke; It's [F]all just a boast, [G]yeah yeah yeah, [F]oh
I'm always a [C]ghost[G] [-] [F]
[A(m)] [C]  
 
 E-----------------|-----------------|-----------------|-----------------|
 B-----------------|-----------------|-----------------|-----------------|
 G-----------------|-----------------|-----0-----0-----|-----0-----0-----|
 D-----2-----2-----|-----2-----2-----|-----------------|-----------------|
 A-0-0---0-0-----0-|-0-0---0-0-----0-|-3-3---3-3-----3-|-3-3---3-3-----3-|
 E-----------------|-----------------|-----------------|-----------------|

| 1 + 2 + 3 +(4)+ | 1 + 2 + 3 +(4)+ | 1 + 2 + 3 +(4)+ | 1 + 2 + 3 +(4)+ |
[G(/B)] [F(/A)]  
 
 E-----------------|-----------------|-----------------|-----------------|
 B-----------------|-----------------|-----------------|-----------------|
 G-----0-----0-----|-----0-----0-----|-----------------|-----------------|
 D-----------------|-----------------|-----3-----3-----|-----3-----3-----|
 A-2-2---2-2-----2-|-2-2---2-2-----2-|-0-0---0-0-----0-|-0-0---0-0-----0-|
 E-----------------|-----------------|-----------------|-----------------|

| 1 + 2 + 3 +(4)+ | 1 + 2 + 3 +(4)+ | 1 + 2 + 3 +(4)+ | 1 + 2 + 3 +(4)+ |
[Am]You're about as haunted as a darkened basement
[C]I've got all the chances of a dog in a settlement
[G]She may have her secrets, she'll never tell
I [F]ride along without 'em on a deep sea swell
I [Am]heard there's something new; she starts to talk
[C]She's the merry widow on the widow's walk
And I [G]say, what do you fear what are you running from
[F]The only thing I fear is when I go numb
And I'm [Am]hoping you will find me
I keep [C]hoping you will find me
[Am]Hoping you will find me
I keep [C]hoping you will find me, [G]yeah yeah yeah
[C]And I try to keep it simple; I try to keep it true
It?s [G]always been you, it?s [F]always been you
When you [C]sailor boys brag about the hearts that they broke
It was [G]all just a joke; It's [F]all just a boast, [G]yeah yeah yeah, [F]mmm
I?m always a [C]ghost
I?m [G]always a [F]ghost
I?m [G]always a [C]ghost
I?m [G]always a [F]ghost[G] [C]

Important: The song above is NOT stored on the Chordie server. The original song is hosted at www.guitaretab.com. Chordie works as a search engine and provides on-the-fly formatting. Chordie does not index songs against artists'/composers' will. To remove this song please click here.

Text color:
Chord color:
Chord grids: 
Font size:    
Page size: 

Am Am7 C F G
Rate #3 of 3 versions

Jango Player

Login - add to songbook

SHARE PAGE  



You need to log in to post comments