Guitar Tabs, Chords and Lyrics
Update 25:10. 13:00. Site is back up running again. Songbooks are recovered. Woring on getting search back up..


History  This Wild Life

CAPO 1
(*= single strum)
Intro:
(Cadd9) (Cadd9) (Em7) (Dsus, D)
 
 e|--------3-0---------------3-0------------------3-0--------------3-2--------------------|
 B|----3-------3---3-----3--------3---3-------3-------3---3----3-------3---3--------------|
 G|------0-------0---------0--------0-----------0-------0--------2-------2----------------|
 D|---------------------------------------------------------------------------------------| (x2)
 A|--3----------------3---------------------2----------------0----------------------------|
 E|---------------------------------------------------------------------------------------|

[Cadd9]You should not get what you have not earned
[Em7]What I do from here is none of y[Dsus]our c[D]oncern
[Cadd9]It didn‚??t work, yeah I know it hurts
[Em7]But it‚??s gotta give before it[Dsus] gets [D]much worse
[Cadd9]Ooooooo[G]h, gotta g[Em7]ive up on you,[Dsus] oooh[D]
[Cadd9]Ooooooo[G]h, gotta g[Em7]ive up on you, [Dsus]on yo[D]u[Dsus]
Chorus:
[Em7]We‚??ve got a lot of[Cadd9] history
But ther[G]e‚??s too much space between[Dsus] you an[D]d me
[Em7]You have plans, yeah I[Cadd9] have dreams
But [G]do I have the g[Dsus]uts in[D] me
[Em7]To leavee[Cadd9]eeee, l[G]eaveeeee, p[Dsus]ack my shit[D] and[Dsus] leave
Em7 Cadd9 G* Dsus*
Leaveeeeeee, leaveeeeeeee
(Cadd9) (Cadd9) (Em7) (Dsus, D)
 
 e|--------3-0---------------3-0------------------3-0--------------3-2--------------------|
 B|----3-------3---3-----3--------3---3-------3-------3---3----3-------3---3--------------|
 G|------0-------0---------0--------0-----------0-------0--------2-------2----------------|
 D|---------------------------------------------------------------------------------------| (x2)
 A|--3----------------3---------------------2----------------0----------------------------|
 E|---------------------------------------------------------------------------------------|

[Cadd9]The irony gets the best of me
[Em7]I‚??m sad that we split, bu[Dsus]t you‚??[D]re still happy
[Cadd9]What I gave to you was more than memories
[Em7]What you took from me wasn‚??[Dsus]t wort[D]h anything
[Cadd9]Ooooooo[G]h, gotta g[Em7]ive up on you,[Dsus] oooh[D]
Cadd9* G* Em7* Dsus* D Dsus
Oooooooh, gotta give up on you, on you
Chorus:
[Em7]We‚??ve got a lot of[Cadd9] history
But ther[G]e‚??s too much space between[Dsus] you an[D]d me
[Em7]You have plans, yeah I[Cadd9] have dreams
But [G]do I have the g[Dsus]uts in[D] me
[Em7]To leavee[Cadd9]eeee, l[G]eaveeeee, p[Dsus]ack my shit[D] and[Dsus] leave
[Em7]Leaveee[Cadd9]eeee, le[G]aveeee[Dsus]eeee [D]
[Cadd9]Ooooooo[Cadd9]ooooooo[Em7]oooh[(G)] [Dsus] [D]
[Cadd9] [Cadd9] [Em7] [Dsus] [D]  
[Cadd9]You never cared enough, [Em7]you never earned my trust
[G]You just took what yo[Dsus]u cou[D]ld get
[Cadd9]You never lift me up, I[Em7] never feel your love
[G]I know exactly w[Dsus]hat t[D]hi[Dsus]s is
Cadd9* Em7* G* Dsus* D*
[Cadd9]I‚??m tired of the weight when[Em7] you lean on me
[G]If I fell you would never stay t[Dsus]o car[D]ry me
Chorus:
[Em7]We‚??ve got a lot of[Cadd9] history
But ther[G]e‚??s too much space between[Dsus] you an[D]d me
[Em7]You have plans, yeah I[Cadd9] have dreams
But [G]do I have the g[Dsus]uts in[D] me
[Em7]To leavee[Cadd9]eeee, l[G]eaveeeee, p[Dsus]ack my shit[D] and[Dsus] leave
Em7 Cadd9 G* Dsus*
Leaveeeeeee, leaveeeeeeee
(Cadd9) (Cadd9) (Em7) (Dsus, D) (Cadd9)
 
 e|--------3-0---------------3-0------------------3-0--------------3-2---------------3-----|
 B|----3-------3---3-----3--------3---3-------3-------3---3----3-------3---3---------3-----|
 G|------0-------0---------0--------0-----------0-------0--------2-------2-----------0-----|
 D|----------------------------------------------------------------------------------2-----| (x2)
 A|--3----------------3---------------------2----------------0-----------------------3-----|
 E|----------------------------------------------------------------------------------------|


Important: The song above is NOT stored on the Chordie server. The original song is hosted at www.guitaretab.com. Chordie works as a search engine and provides on-the-fly formatting. Chordie does not index songs against artists'/composers' will. To remove this song please click here.

Text color:
Chord color:
Chord grids: 
Font size:    
Page size: 

Cadd9 D Dsus Em7 G
Rate #1 of 2 versions

Jango Player

Login - add to songbook

SHARE PAGE  



You need to log in to post comments