Guitar Tabs, Chords and Lyrics
Major upgrade!! After one year development the new version of Chordie is now online! Please give feedback.


All the Way Live   Thousand Foot Krutch

 
 e[-----------------------------|--------------|----7---------]
 b[-----------------------------|--------------|----9---------]
 g[-----------------------------|--------------|----7---------]
 d[-----------------------------|--------------|----9---------]
 a[7-5-4-5--------------7-5-4-5-|7-7-9-9-7b9b7-|----7---------]
 e[--------4-5-7-5-4-0----------|--------------|--------------]

 


 Riff 2


 

 
 e[-----------------------------------------------------------]
 b[-----9-9-----9-9-----9-------------------------------------]
 g[-----7-7-----7-7-----7-------------------------------------]
 d[-----9-9-----9-9-----9-------------------------------------]
 a[-x-x-7-7-x-x-7-7-x-x-7-------------------------------------]
 e[-0-0-----0-0-----0-0---------------------------------------]

 


 Riff 3 Riff 4


 

 
 e[------------------------------------|----------------------]
 b[------------------------------------|----------------------]
 g[------------------------------------|-----------7(harmonic)]
 d[-2-2-x-x-2-2-x-x-2-2-x-x-5-5--------|-2-2------------------]
 a[-2-2-x-x-2-2-x-x-2-2-x-x-5-5-4-5-7--|-2-2------------------]
 e[-0-0-x-x-0-0-x-x-0-0-x-x-3-3--------|-0-0------------------]


Important: The song above is NOT stored on the Chordie server. The original song is hosted at www.guitaretab.com. Chordie works as a search engine and provides on-the-fly formatting. Chordie does not index songs against artists'/composers' will. To remove this song please click here.

This song is displayed as text-only. Transposing and tuning is only available for chordpro-songs.
Rate #3 of 4 versions

Login - add to songbook

SHARE PAGE  




You need to log in to post comments