Guitar Tabs, Chords and Lyrics
Login is temporarily disabled for some users. Do not panic. Will be back in an hour or two. DO NOT REREGISTER!!


Itâ??s All Over   Three Days Grace

 
 |------------|---------------------------|----------------------------|
 |------------|---------------------------|----------------------------|
 |------------|---------------------------|----------------------------|
 |------------|---------------------------|----------------------------|
 |------------|-0-0-0-7-7-7-3-3-3-2-3-2-3-|-0-0-0-7-7-7-3-3-3-2-3-2-3--|
 |------------|-0-0-0-7-7-7-3-3-3-2-3-2-3-|-0-0-0-7-7-7-3-3-3-2-3-2-3--|

 


 


 S E S S E S S E S S S S S S S S S S S S S H


 

 
 |---------------------------|----------------------||
 |---------------------------|----------------------||
 |---------------------------|----------------------||
 |---------------------------|----------------------||
 |-0-0-0-7-7-7-3-3-3-2-3-2-3-|---5-5-5-5-5-5-5-3----||
 |-0-0-0-7-7-7-3-3-3-2-3-2-3-|---5-5-5-5-5-5-5-3----||

 


 


 Verse


 S S S S S S S S S S S S S S S S S S S S S S S S S S S S S S S S


 

 
 ||----------------------------------|----------------------------------|
 ||o---------------------------------|----------------------------------|
 ||----------------------------------|----------------------------------|
 ||----------------------------------|----------------------------------|
 ||o-5-5-5-5-----------------7-8-7-8-|---5-5-5-----------------7-8-7-8--|
 ||----------7-7-7-7-3-3-3-3---------|---------7-7-7-7-3-3-3-3----------|

 


 


 S S S S S S S S S S S S S S S S S S S S S S S S S S S S S S S S


 

 
 |---------------------------------|---------------------------------|
 |---------------------------------|---------------------------------|
 |---------------------------------|---------------------------------|
 |---------------------------------|---------------------------------|
 |-5-5-5-5-----------------7-8-7-8-|---------------------------------|
 |---------7-7-7-7-3-3-3-3---------|---5-5-5-5-5-5-5-x-3-3-3-3-3-3-3-|

 


 


 Gtr II


 S S S S S S S S S S S S S S S S


 

 
 |-10-10-10-10-10-10-10-10-10-10-10-10-10-10-10-10-|
 |-------------------------------------------------|
 |-------------------------------------------------|
 |-------------------------------------------------|
 |-------------------------------------------------|
 |-------------------------------------------------|

 


 |


 | Gtr I


 | S S S S S S S S S S S S S S S S


 

 
 |-------------------------------------------------|
 |-------------------------------------------------|
 |-------------------------------------------------|
 |-------------------------------------------------|
 |--5--5--5--5--------------------------7--8--7--8-|
 |--------------7--7--7--7--3--3--3--3-------------|

 


 


 S S S S S S S S S S S S S S S S S S S S S S S S S S S S S S S S


 

 
 |---10-10-10-10-10-10-10-10-10-10-10-10-10-10-10-|-10-10-10-10-10-10-10-10-10-10-10-10-10-10-10-10-|
 |------------------------------------------------|-------------------------------------------------|
 |------------------------------------------------|-------------------------------------------------|
 |------------------------------------------------|-------------------------------------------------|
 |------------------------------------------------|-------------------------------------------------|
 |------------------------------------------------|-------------------------------------------------|

 


 |


 | S S S S S S S S S S S S S S S S S S S S S S S S S S S S S S S S


 

 
 |------------------------------------------------|-------------------------------------------------|
 |------------------------------------------------|-------------------------------------------------|
 |------------------------------------------------|-------------------------------------------------|
 |------------------------------------------------|-------------------------------------------------|
 |----5--5--5--------------------------7--8--7--8-|--5--5--5--5--------------------------7--8--7--8-|
 |-------------7--7--7--7--3--3--3--3-------------|--------------7--7--7--7--3--3--3--3-------------|

 


 


 E E E E E E E E H +E S S Q


 

 
 |-----------------|------------------||
 |-----------------|------------------||
 |-----------------|------------------||
 |-5-5-5-5-5-5-5-5-|-8----(8)-----10--||
 |-5-5-5-5-5-5-5-5-|-8----(8)-x-x-10--||
 |-5-5-5-5-5-5-5-5-|-8----(8)-x-x-10--||

 


 


 Chorus


 Q. E +H Q. E +H


 

 
 |-----------------|-----------------|
 |-----------------|-----------------|
 |------10-(10)----|------10-(10)----|
 |-7---------------|-7---------------|
 |-----------------|-----------------|
 |-----------------|-----------------|

 


 |


 | W W


 

 
 |-----------------|-----------------|
 |-----------------|-----------------|
 |-----------------|-----------------|
 |-0---------------|-8---------------|
 |-0---------------|-8---------------|
 |-0---------------|-8---------------|

 


 


 Q. E +H H Q Q


 

 
 |----------------------|--------------------|
 |-8------10-(10)-------|--------------------|
 |----------------------|-10---------9-------|
 |----------------------|----------------10--|
 |----------------------|--------------------|
 |----------------------|--------------------|

 


 |


 | E E E E E E E E E E E S S E E Q


 

 
 |----------------------|--------------------|
 |----------------------|--------------------|
 |----------------------|--5-5-5-5-5-5-5-----|
 |-5--5-5--5---5--5-5-5-|--5-5-5-5-5-5-5--3--|
 |-5--5-5--5---5--5-5-5-|--3-3-3-3-3-3-3--3--|
 |-5--5-5--5---5--5-5-5-|-----------------3--|

 


 


 1.


 Q. E +H Q. E +H


 

 
 |-----------------|-----------------|
 |-----------------|-----------------|
 |------10-(10)----|------10-(10)----|
 |-7---------------|-7---------------|
 |-----------------|-----------------|
 |-----------------|-----------------|

 


 |


 | W W


 

 
 |-----------------|-----------------|
 |-----------------|-----------------|
 |-----------------|-----------------|
 |-0---------------|-8---------------|
 |-0---------------|-8---------------|
 |-0---------------|-8---------------|

 


 


 Q. E +H H Q Q


 

 
 |----------------------|---------------------||
 |-8------10-(10)-------|--------------------o||
 |----------------------|-10---------9--------||
 |----------------------|----------------10---||
 |----------------------|--------------------o||
 |----------------------|---------------------||

 


 |


 | E E E E E E E E E E E S S E E Q


 

 
 |----------------------|---------------------||
 |----------------------|--------------------o||
 |----------------------|--5-5-5-5-5-5-5------||
 |-5--5-5--5---5--5-5-5-|--5-5-5-5-5-5-5--3---||
 |-5--5-5--5---5--5-5-5-|--3-3-3-3-3-3-3--3--o||
 |-5--5-5--5---5--5-5-5-|-----------------3---||

 


 


 2.


 Q. E +H Q. E +H Q. E +H


 

 
 |-----------------|-----------------|----------------------|
 |-----------------|-----------------|-8------10-(10)-------|
 |------10-(10)----|------10-(10)----|----------------------|
 |-7---------------|-7---------------|----------------------|
 |-----------------|-----------------|----------------------|
 |-----------------|-----------------|----------------------|

 


 |


 | W W E E E E E E E E


 

 
 |-----------------|-----------------|----------------------|
 |-----------------|-----------------|----------------------|
 |-----------------|-----------------|----------------------|
 |-0---------------|-8---------------|-5--5-5--5---5--5-5-5-|
 |-0---------------|-8---------------|-5--5-5--5---5--5-5-5-|
 |-0---------------|-8---------------|-5--5-5--5---5--5-5-5-|

 


 


 Interlude


 H Q Q W W


 

 
 |-------------------||---------------------------|---------------------------|
 |-------------------||---------------------------|---------------------------|
 |-10-------9--------||---------------------------|---------------------------|
 |-------------------||---------------------------|---------------------------|
 |-------------------||---------------------------|---------------------------|
 |-------------------||---------------------------|---------------------------|

 


 |


 | Gtr I


 | ~~~


 | E E E E E E Q S E S S E S S E S S S S S S E S S E S S E S S S S S


 

 
 |-------------------||---------------------------|---------------------------|
 |-------------------||---------------------------|---------------------------|
 |--5-5-5-5-5-5------||---------------------------|---------------------------|
 |--5-5-5-5-5-5------||---------------------------|---------------------------|
 |--3-3-3-3-3-3------||-0-0-0-7-7-7-3-3-3-2-3-2-3-|-0-0-0-7-7-7-3-3-3-2-3-2-3-|
 |--------------[3]--||-0-0-0-7-7-7-3-3-3-2-3-2-3-|-0-0-0-7-7-7-3-3-3-2-3-2-3-|

 


 


 Gtr III


 |--3--|


 W H Q E S S S


 

 
 |---------------------------|---------------------15-17-||
 |---------------------------|------------------15-------||
 |---------------------------|---------------------------||
 |---------------------------|---------------------------||
 |---------------------------|---------------------------||
 |---------------------------|---------------------------||

 


 |


 | S E S S E S S E S S S S S E E E E E E E E


 

 
 |---------------------------|---------------------------||
 |---------------------------|---------------------------||
 |---------------------------|-7-7-7-7-10-10-10-10-------||
 |---------------------------|-5-5-5-5--8--8--8--8-------||
 |-0-0-0-7-7-7-3-3-3-2-3-2-3-|-5-5-5-5--8--8--8--8-------||
 |-0-0-0-7-7-7-3-3-3-2-3-2-3-|-5-5-5-5--8--8--8--8-------||

 


 


 Guitar Solo


 ~~~~~~~


 |--3--|


 +Q E E +Q. S S S


 

 
 |-(17)b18--17pb18r17-(17)------------|
 |---------------------------------13-|
 |------------------------------14----|
 |---------------------------15-------|
 |------------------------------------|
 |------------------------------------|

 


 |


 | W


 

 
 |------------------------------------|
 |------------------------------------|
 |------------------------------------|
 |---0--------------------------------|
 |---0--------------------------------|
 |---0--------------------------------|

 


 


 \0.5/


 ~~~~~~~


 

 
 |-------5--------| |--3---|

 


 a E. S S S S S S S S S E +S S S S


 

 
 |-12h13--12-------------------------------------------------|
 |-----------13----------------------------------------------|
 |--------------14-------------------------------------12----|
 |-----------------14-(14)h===15-(15)p14p12-14-(14)-12----12-|
 |-----------------------------------------------------------|
 |-----------------------------------------------------------|

 


 |


 | W


 

 
 |-----------------------------------------------------------|
 |-----------------------------------------------------------|
 |-----------------------------------------------------------|
 |-----8-----------------------------------------------------|
 |-----8-----------------------------------------------------|
 |-----8-----------------------------------------------------|

 


 


 ~~~~~~~ ~~ ~~


 Q E E +Q. E Q Q Q Q


 

 
 |------------------------|-13---12--------------|
 |------------------------|-------------15---13--|
 |-15---15-14-(14)-----12-|----------------------|
 |------------------------|----------------------|
 |------------------------|----------------------|
 |------------------------|----------------------|

 


 |


 | E E E E E E E E E E E S S E E Q


 

 
 |------------------------|----------------------|
 |------------------------|----------------------|
 |------------------------|--5-5--5-5-5--5-5-----|
 |--5-5--5--5---5--5-5--5-|--5-5--5-5-5--5-5--3--|
 |--5-5--5--5---5--5-5--5-|--3-3--3-3-3--3-3--3--|
 |--5-5--5--5---5--5-5--5-|-------------------3--|

 


 


 ~~~~~~~


 |--3--|


 a a a +Q E E +Q. S S S


 

 
 |----15-17-(17)b18--17pb18r17-(17)-------------|
 |-15---------------------------------------13--|
 |---------------------------------------14-----|
 |------------------------------------15--------|
 |----------------------------------------------|
 |----------------------------------------------|

 


 |


 | W


 

 
 |----------------------------------------------|
 |----------------------------------------------|
 |----------------------------------------------|
 |------------0---------------------------------|
 |------------0---------------------------------|
 |------------0---------------------------------|

 


 


 \0.5/


 ~~~~~~~


 

 
 |-------5--------| |--3---|

 


 a E. S S S S S S S S S E +S S S S


 

 
 |-12h13--12-------------------------------------------------|
 |-----------13----------------------------------------------|
 |--------------14-------------------------------------12----|
 |-----------------14-(14)h===15-(15)p14p12-14-(14)-12----12-|
 |-----------------------------------------------------------|
 |-----------------------------------------------------------|

 


 |


 | W


 

 
 |-----------------------------------------------------------|
 |-----------------------------------------------------------|
 |-----------------------------------------------------------|
 |-----8-----------------------------------------------------|
 |-----8-----------------------------------------------------|
 |-----8-----------------------------------------------------|

 


 


 ~~~~~~~


 

 
 |------6-------|

 


 Q E E +Q S S S S S S Q Q Q Q


 

 
 |--------------------------------------------|----------------------||
 |-----------------------------------13-15-17-|-18---17-----15-------||
 |-14b15---14pb15r14-(14)---12-14-17----------|------------------17--||
 |--------------------------------------------|----------------------||
 |--------------------------------------------|----------------------||
 |--------------------------------------------|----------------------||

 


 |


 | E E E E E E E E E E E S S E E Q


 

 
 |--------------------------------------------|----------------------||
 |--------------------------------------------|----------------------||
 |--------------------------------------------|--5-5--5-5-5--5-5-----||
 |--5----5--5------5---5--5--5--------5-------|--5-5--5-5-5--5-5--3--||
 |--5----5--5------5---5--5--5--------5-------|--3-3--3-3-3--3-3--3--||
 |--5----5--5------5---5--5--5--------5-------|-------------------3--||

 


 


 Bridge


 Gtr III


 >


 W +W


 

 
 |----------------|------------------|
 |----------------|------------------|
 |-15-------------|-(15)-------------|
 |----------------|------------------|
 |----------------|------------------|
 |----------------|------------------|

 


 |


 | Gtr IV


 | Q E E +H Q E E +H


 

 
 |----------------|------------------|
 |-------6-(6)----|---------6-(6)----|
 |-----7----------|-------7----------|
 |----------------|------------------|
 |----------------|------------------|
 |--0-------------|---8--------------|

 


 


 Gtr IV


 Q E E +H H H


 

 
 |---------------|-----------|
 |------6-(6)----|-6----5----|
 |----7----------|-----------|
 |---------------|-----------|
 |---------------|-3---------|
 |-5-------------|-----------|

 


 


 Gtr IV


 Q E E +H Q E E +H


 

 
 |----------------|-----------------|
 |-------6-(6)----|--------6-(6)----|
 |-----7----------|------7----------|
 |----------------|-----------------|
 |----------------|-----------------|
 |--0-------------|--8--------------|

 


 |


 | Gtr V


 | >


 | W +H H


 

 
 |-^0-------------|-(0)-------------|
 |-^6-------------|-(6)-------------|
 |-^7-------------|-(7)-------------|
 |-^0-------------|-(0)-------------|
 |-^0-------------|-(0)-------------|
 |-^0-------------|-(0)-------------|

 


 


 Gtr I


 ~~~


 E E E E E E E E E E E E E S S Q


 

 
 |-----------------|--------------------||
 |-----------------|--------------------||
 |-----------------|--------------------||
 |-----------------|-5-5-5-5-5----------||
 |-5-5-5-5-5-5-5-5-|-3-3-3-3-3----------||
 |-5-5-5-5-5-5-5-5-|-----------0-0-[3]--||

 


 


 Chorus


 Gtr II


 Q. E +H Q. E +H


 

 
 ||------------------|-----------------|
 ||o-----------------|-----------------|
 ||-------10-(10)----|------10-(10)----|
 ||--7---------------|-7---------------|
 ||o-----------------|-----------------|
 ||------------------|-----------------|

 


 |


 | Gtr I


 | W W


 

 
 ||------------------|-----------------|
 ||o-----------------|-----------------|
 ||------------------|-----------------|
 ||--0---------------|-8---------------|
 ||o-0---------------|-8---------------|
 ||--0---------------|-8---------------|

 


 


 Q. E +H H Q Q 3x


 

 
 |----------------------|---------------------||
 |-8------10-(10)-------|--------------------o||
 |----------------------|-10---------9--------||
 |----------------------|----------------10---||
 |----------------------|--------------------o||
 |----------------------|---------------------||

 


 |


 | E E E E E E E E E E E S S E E Q 3x


 

 
 |----------------------|---------------------||
 |----------------------|--------------------o||
 |----------------------|--5-5-5-5-5-5-5------||
 |-5--5-5--5---5--5-5-5-|--5-5-5-5-5-5-5--3---||
 |-5--5-5--5---5--5-5-5-|--3-3-3-3-3-3-3--3--o||
 |-5--5-5--5---5--5-5-5-|-----------------3---||

 


 


 Gtr I


 S E S S E S S E S S S S S W


 

 
 |---------------------------|------*|
 |---------------------------|------*|
 |---------------------------|------*|
 |---------------------------|------*|
 |-0-0-0-7-7-7-3-3-3-2-3-2-3-|------*|
 |-0-0-0-7-7-7-3-3-3-2-3-2-3-|------*|

 


 


 Duration Legend


 

 
 ---------------
 W - whole; H - half; Q - quarter; E - 8th; S - 16th; T - 32nd; X - 64th; a - acciaccatura

 


 + - note tied to previous; . - note dotted; .. - note double dotted


 Uncapitalized letters represent notes that are staccato (1/2 duration)


 Irregular groupings are notated above the duration line


 Duration letters will always appear directly above the note/fret number it represents the


 duration for. Duration letters with no fret number below them represent rests. Multi-


 bar rests are notated in the form Wxn, where n is the number of bars to rest for. Low


 melody durations appear below the staff


 


 Tablature Legend


 

 
 ----------------

 


 h - hammer-on


 p - pull-off


 b - bend


 pb - pre-bend


 r - bend release (if no number after the r, then release immediately)


 /\ - slide into or out of (from/to "nowhere")


 s - legato slide


 S - shift slide


 - natural harmonic


 (n) - artificial harmonic


 n(n) - tapped harmonic


 ~ - vibrato


 tr - trill


 T - tap


 TP - trem. picking


 PM - palm muting


 \n/ - tremolo bar dip; n = amount to dip


 \n - tremolo bar down


 n/ - tremolo bar up


 /n\ - tremolo bar inverted dip


 = - hold bend; also acts as connecting device for hammers/pulls


 - volume swell (louder/softer)


 x - on rhythm slash represents muted slash


 o - on rhythm slash represents single note slash


 


 Misc Legend


 

 
 -----------


Important: The song above is NOT stored on the Chordie server. The original song is hosted at www.guitaretab.com. Chordie works as a search engine and provides on-the-fly formatting. Chordie does not index songs against artists'/composers' will. To remove this song please click here.

This song is displayed as text-only. Transposing and tuning is only available for chordpro-songs.
Rate #1 of 2 versions

Jango Player

Login - add to songbook

SHARE PAGE  




You need to log in to post comments