Guitar Tabs, Chords and Lyrics
Login is temporarily disabled for some users. Do not panic. Will be back in an hour or two. DO NOT REREGISTER!!


Bully   Three Days Grace

 
 -------------------------------------------------------------------------------

 


 BULLY - Three Days Grace


 

 
 -------------------------------------------------------------------------------

 


 Tabbed by: Corbin Nesa


 Email: c_nesa@hotmail.com


 


 Lemme know what you think!


 


 Tuning: Dropped C


 


 Intro


 

 
 D|---------------------------------------------------------------------|
 A|---------------------------------------------------------------------|
 F|----------------------------------------------------------------(5)--|
 C|--4-3---3-3-0---0---0---0---0---0-4-3---3-3-0---0---0---0----(5)-----|
 G|--4-3---3-3-0---0---0---0---0---0-4-3---3-3-0---0---0---0-(5)--------|
 C|--4-3---3-3-0---0---0---0---0---0-4-3---3-3-0---0---0---0------------|
 D|---------------------------------------------------------------------|
 A|---------------------------------------------------------------------|
 F|---------------------------------------------------------------------|
 C|--4-3---3-3-0---0---0---0---0---0-4-3---3-3-0---0---0---0-0----------|
 G|--4-3---3-3-0---0---0---0---0---0-4-3---3-3-0---0---0---0-0----------|
 C|--4-3---3-3-0---0---0---0---0---0-4-3---3-3-0---0---0---0-0----------|

 


 


 Verse 1


 

 
 D|---------------------------------------------------------------------|
 A|---------------------------------------------------------------------|
 F|----------------------------------------------------------------(5)--|
 C|--4-3---3-3-0---0---0---0-0---0-0-4-3---3-3-0---0---0---0----(5)-----|
 G|--4-3---3-3-0---0---0---0-0---0-0-4-3---3-3-0---0---0---0-(5)--------|
 C|--4-3---3-3-0---0---0---0-0---0-0-4-3---3-3-0---0---0---0------------| \

 


 . . . . . . . . . . . . . . . . . . . \


 X2


 [/]  

 
 D|---------------------------------------------------------------------| /
 A|---------------------------------------------------------------------|
 F|---------------------------------------------------------------------|
 C|--4-3---3-3-0---0---0---0-0---0-0-10--------------0-0-5--------------|
 G|--4-3---3-3-0---0---0---0-0---0-0-10--------------0-0-5--------------|
 C|--4-3---3-3-0---0---0---0-0---0-0-10--------------0-0-5--------------|

 


 . . . . . . . . . . . . .


 


 Chorus (feel free to play with hammer ons and pull offs)


 


 Guitar 1


 

 
 D|---------------------------------------------------------------------|
 A|---------------------------------------------------------------------|
 F|---------------------------------------------------------------------|
 C|--4-5---7-5-4-3-5-2-0---0-0-------4-5---7-5-4-3-5-2-0---0-0----------|
 G|--4-5---7-5-4-3-5-2-0---0-0-------4-5---7-5-4-3-5-2-0---0-0----------|
 C|--4-5---7-5-4-3-5-2-0---0-0-------4-5---7-5-4-3-5-2-0---0-0----------|

 


 Guitar 2


 

 
 D|---------------------------------------------------------------------|
 A|----------------------------------------------------------13~--------|
 F|------------------/14~----12~---------------------/14~---------------|
 C|---------------------------------------------------------------------| \
 G|---------------------------------------------------------------------| \
 C|---------------------------------------------------------------------| \

 


 X2


 Guitar 1 /


 

 
 D|---------------------------------------------------------------------| /
 A|---------------------------------------------------------------------| /
 F|---------------------------------------------------------------------|
 C|--4-5---7-5-4-3-5-2-0---0-0-------10------------x-x-5----------------|
 G|--4-5---7-5-4-3-5-2-0---0-0-------10------------x-x-5----------------|
 C|--4-5---7-5-4-3-5-2-0---0-0-------10------------x-x-5----------------|

 


 Guitar 2


 

 
 D|---------------------------------------------------------------------|
 A|---------------------------------------------------------------------|
 F|------------------/14~----12~----------------------------------------|
 C|---------------------------------------------------------------------|
 G|---------------------------------------------------------------------|
 C|---------------------------------------------------------------------|

 


 


 Pre Verse 2


 

 
 D|---------------------------------------------------------------------|
 A|---------------------------------------------------------------------|
 F|---------------------------------------------------------------------|
 C|--4-3---3-3-0---0---0---0---0---0-4-3---3-3-0---0---0---0-0----------|
 G|--4-3---3-3-0---0---0---0---0---0-4-3---3-3-0---0---0---0-0----------|
 C|--4-3---3-3-0---0---0---0---0---0-4-3---3-3-0---0---0---0-0----------|

 


 


 Verse 2


 

 
 D|---------------------------------------------------------------------|
 A|---------------------------------------------------------------------|
 F|----------------------------------------------------------------(5)--|
 C|--4-3---3-3-0---0---0---0-0---0-0-4-3---3-3-0---0---0---0----(5)-----|
 G|--4-3---3-3-0---0---0---0-0---0-0-4-3---3-3-0---0---0---0-(5)--------|
 C|--4-3---3-3-0---0---0---0-0---0-0-4-3---3-3-0---0---0---0------------| \

 


 . . . . . . . . . . . . . . . . . . . \


 X2


 [/]  

 
 D|---------------------------------------------------------------------| /
 A|---------------------------------------------------------------------|
 F|---------------------------------------------------------------------|
 C|--4-3---3-3-0---0---0---0-0---0-0-10--------------0-0-5--------------|
 G|--4-3---3-3-0---0---0---0-0---0-0-10--------------0-0-5--------------|
 C|--4-3---3-3-0---0---0---0-0---0-0-10--------------0-0-5--------------|

 


 . . . . . . . . . . . . .


 


 Chorus


 


 Guitar 1


 

 
 D|---------------------------------------------------------------------|
 A|---------------------------------------------------------------------|
 F|---------------------------------------------------------------------|
 C|--4-5---7-5-4-3-5-2-0---0-0-------4-5---7-5-4-3-5-2-0---0-0----------|
 G|--4-5---7-5-4-3-5-2-0---0-0-------4-5---7-5-4-3-5-2-0---0-0----------|
 C|--4-5---7-5-4-3-5-2-0---0-0-------4-5---7-5-4-3-5-2-0---0-0----------|

 


 Guitar 2


 

 
 D|---------------------------------------------------------------------|
 A|----------------------------------------------------------13~--------|
 F|------------------/14-~---12~---------------------/14~---------------|
 C|---------------------------------------------------------------------| \
 G|---------------------------------------------------------------------| \
 C|---------------------------------------------------------------------| \

 


 X2


 Guitar 1 /


 

 
 D|---------------------------------------------------------------------| /
 A|---------------------------------------------------------------------| /
 F|---------------------------------------------------------------------|
 C|--4-5---7-5-4-3-5-2-0---0-0-------10------------x-x-5----------------|
 G|--4-5---7-5-4-3-5-2-0---0-0-------10------------x-x-5----------------|
 C|--4-5---7-5-4-3-5-2-0---0-0-------10------------x-x-5----------------|

 


 Guitar 2


 

 
 D|---------------------------------------------------------------------|
 A|---------------------------------------------------------------------|
 F|------------------/14~----12~----------------------------------------|
 C|---------------------------------------------------------------------|
 G|---------------------------------------------------------------------|
 C|---------------------------------------------------------------------|

 


 


 Bridge


 

 
 D|---------------------------------------| X4
 A|---------------------------------------|
 F|---------------------------------------|
 C|----------5p4p0h1----------------------|
 G|---------------------------------------|
 C|--0---0---------------0---0---5p3p0-3--|

 


 . . ....... . . .....


 


 

 
 D|---------------------------------------| X4
 A|---------------------------------------|
 F|---------------------------------------|
 C|--0---0---5p4p0h1-----0---0---5p3p0h3--|
 G|--0---0---5p4p0h1-----0---0---5p3p0h3--|
 C|--0---0---5p4p0h1-----0---0---5p3p0p3--|

 


 


 Guitar 1


 

 
 D|---------------------------------------|
 A|---------------------------------------|
 F|---------------------------------------|
 C|--0-------5p4p0h1---------0---5p3p0h3--|
 G|--0-------5p4p0h1---------0---5p3p0h3--| \
 C|--0-------5p4p0h1---------0---5p3p0p3--| \

 


 Guitar 2 X5


 

 
 D|---------------------------------------| /
 A|---------------------------------------| /
 F|----------/17~-------------------------|
 C|--/10~---------------------------------|
 G|---------------------------------------|
 C|---------------------------------------|
 D|------------------------|
 A|------------------------|
 F|------------------------|
 C|--10---10-10-10---------|
 G|--10---10-10-10---------|
 C|--10---10-10-10---------|

 


 


 Chorus


 


 Guitar 1


 

 
 D|---------------------------------------------------------------------|
 A|---------------------------------------------------------------------|
 F|---------------------------------------------------------------------|
 C|--4-5---7-5-4-3-5-2-0---0-0-------4-5---7-5-4-3-5-2-0---0-0----------|
 G|--4-5---7-5-4-3-5-2-0---0-0-------4-5---7-5-4-3-5-2-0---0-0----------|
 C|--4-5---7-5-4-3-5-2-0---0-0-------4-5---7-5-4-3-5-2-0---0-0----------|

 


 Guitar 2


 

 
 D|---------------------------------------------------------------------|
 A|----------------------------------------------------------13~--------|
 F|------------------/14-~---12~---------------------/14~---------------|
 C|---------------------------------------------------------------------| \
 G|---------------------------------------------------------------------| \
 C|---------------------------------------------------------------------| \

 


 X2


 Guitar 1 /


 

 
 D|---------------------------------------------------------------------| /
 A|---------------------------------------------------------------------| /
 F|---------------------------------------------------------------------|
 C|--4-5---7-5-4-3-5-2-0---0-0-------10------------x-x-5----------------|
 G|--4-5---7-5-4-3-5-2-0---0-0-------10------------x-x-5----------------|
 C|--4-5---7-5-4-3-5-2-0---0-0-------10------------x-x-5----------------|

 


 Guitar 2


 

 
 D|---------------------------------------------------------------------|
 A|---------------------------------------------------------------------|
 F|------------------/14~----12~----------------------------------------|
 C|---------------------------------------------------------------------|
 G|---------------------------------------------------------------------|
 C|---------------------------------------------------------------------|

 


 


 Outro


 

 
 D|---------------------------------------------------------------------|
 A|---------------------------------------------------------------------|
 F|----------------------------------------------------------------(5)--|
 C|--4-3---3-3-0---0---0---0---0---0-4-3---3-3-0---0---0---0----(5)-----|
 G|--4-3---3-3-0---0---0---0---0---0-4-3---3-3-0---0---0---0-(5)--------|
 C|--4-3---3-3-0---0---0---0---0---0-4-3---3-3-0---0---0---0------------|


Important: The song above is NOT stored on the Chordie server. The original song is hosted at www.guitaretab.com. Chordie works as a search engine and provides on-the-fly formatting. Chordie does not index songs against artists'/composers' will. To remove this song please click here.

This song is displayed as text-only. Transposing and tuning is only available for chordpro-songs.
Rate #1 of 3 versions

Jango Player

Login - add to songbook

SHARE PAGE  




You need to log in to post comments