Guitar Tabs, Chords and Lyrics
Login is temporarily disabled for some users. Do not panic. Will be back in an hour or two. DO NOT REREGISTER!!


Never Too Late  Three Days Grace

One X
2006
Submitted by: paramore_fans@yahoo.com
Key: F
Tuning: Standard EADGBe
Chords used:
Bb - x13331
Dm - xx0231
Am - x02210
C - x32010
Intro:
[Bb] [Dm]  
 
 e|---------|--------------|
 B|-----1---|------1-------|
 G|---------|--------3-2---|
 D|---3---3-|-0--0-------3-| x3
 A|-1-------|--------------|
 E|---------|--------------|

[Am] [C]  
 
 e|---------|-0-|
 B|-----1---|-1-|
 G|---------|-0-|
 D|---2---2-|-2-|
 A|-0-------|-3-|
 E|---------|---|

Verse 1:
[Bb] [Dm]This world will never
[Bb]be [Dm]What I expected
[Bb] [Dm]And if I don't be[Am]long [C]Who
would have guessed it
[Bb] [Dm]I will not leave a[Bb]lone
[Dm]Everything that I [Bb]own
[Dm]To make you feel like
it's [Am]not too late
[C] It's never too late
Chorus:
[Dm] [Bb]Even if I say
[Am] It'll [C]be alright
[Dm] S[Bb]till I hear you say
[Am] You want to [C]end your life
[Dm] Now and a[Bb]gain we try
[Am] To just s[C]tay alive
[Bb] Maybe we'll [Dm]turn it around
Cause it's [Am]not too late
[C] It's never too late
Verse 2:
[Bb] [Dm]No one will ever [Bb]see
[Dm]This side reflected
[Bb] [Dm]And if there's something [Am]wrong
[C]Who would have guessed it
[Bb] [Dm]And I have left a[Bb]lone
[Am]Everything that I [Bb]own
[Am]To make you feel like
It's [Am]not too late
[C] It's never too late
(Repeat Chorus)
Bridge:
The [Bb]world we knew [F]Won't [C]come back
The [Bb]time we've lost [F]Can't [C]get back
Bb F C Bb Am C(hold)
The life we had Won't be ours again
Verse 3:
[Bb] [Dm]This world will never
[Bb]be [Dm]What I expected
Bb Dm Am(hold)
And if I don't belong
(Repeat Chorus)
Outro:
[Bb] Maybe we'll [Dm]turn it around
Cause it's [Am]not too late
[C] It's never too late
it's not too [Bb]late[Dm]
it's [Am]not too late
[C] It's never too late
[Bb] [Dm]  
 
 e|---------|--------------|
 B|-----1---|------1-------|
 G|---------|--------3-2---|
 D|---3---3-|-0--0-------3-| x3
 A|-1-------|--------------|
 E|---------|--------------|

[Am] [C]  
 
 e|---------|-0-|
 B|-----1---|-1-|
 G|---------|-0-|
 D|---2---2-|-2-|
 A|-0-------|-3-|
 E|---------|---|


Important: The song above is NOT stored on the Chordie server. The original song is hosted at www.guitaretab.com. Chordie works as a search engine and provides on-the-fly formatting. Chordie does not index songs against artists'/composers' will. To remove this song please click here.

Text color:
Chord color:
Chord grids: 
Font size:    
Page size: 

Am Bb C Dm F
Rate #1 of 1 versions

Login - add to songbook

SHARE PAGE  



You need to log in to post comments