Guitar Tabs, Chords and Lyrics
Login is temporarily disabled for some users. Do not panic. Will be back in an hour or two. DO NOT REREGISTER!!


Break  Three Days Grace

Note: I did not write this tab. The original can be found here:
http://www.guitaretab.com/t/three-days-grace/198418.html
3 Days Grace
Break
Life Starts Now
2009
Submitted by: paramore_fans@yahoo.com
Key: F
Tuning: Drop D
Chords used: Drop D only
Dm - 000xxx
F - 333xxx
Gm - 555xxx
 
 C - 10-10-10-x-x-x

Bb - 888xxx
A - 777xxx
Chords used: for Standard EADGBe
Dm - xx0231
[F] [-] [133211]  
[Gm]C -[-] [355333]x32010
Bb - x13331
A - x02220
Intro:
x2
Verse 1:
[Dm] Tonight my head is spinning
I need [Bb]some[A]thing [Gm]to [F]pick [Gm]me [A]up
[Dm] I've tried but nothing
is working I won't stop
I [Bb]won't [A]say [Gm]I've [F]had [Gm]e--[A]nough
Refrain 1:
[Bb] Tonight I start the fire[C]
[Gm] Tonight I break away
Chorus:
[Dm]Break![F] A[Gm]way from [C]every[Bb]bo-[A]dy
[Dm]Break![F] A[Gm]way from [C]every[Bb]thing[A]
If [Dm]you can't s[F]tand the
[C]way this place [A]is
[Dm]Take your[F]self to
[C]higher pla[Bb]ces[A]
Interlude:
[Dm--]Oh oh
Verse 2:
[Dm] At night I feel like a
vampire It's not right
[Bb]I [A]just [Gm]can't [F]give [Gm]it [A]up
[Dm] I'll try to get myself
higher Let's go
[Bb]We're [A]gon[Gm]na [F]light [Gm]it [A]up
Refrain 2:
[Bb] Tonight We start the fire[C]
[Gm] Tonight We break away
(Repeat Chorus)
 
 Interlude: Dm---Bb-A-Gm-F-Gm-A-

Guitar Solo:
[Dm] [A] [Dm] [A] 
[A]  
 
 e|-10-|-10--10/12-|-18--17--15-|-17--10/12-|-18--17--15-|-17-|
 B|----|-----------|------------|-----------|------------|----|
 G|----|-----------|------------|-----------|------------|----|
 D|----|-----------|------------|-----------|------------|----|
 A|----|-----------|------------|-----------|------------|----|
 D|----|-----------|------------|-----------|------------|----|

[Bb] [Gm]  
 
 e|-15--13--12-|-13-|
 B|------------|----|
 G|------------|----|
 D|------------|----|
 A|------------|----|
 D|------------|----|

[Dm] [A] [Dm] [A] 
[A]  
 
 e|-13--10-|-10--10/12-|-18--17--15-|-17--10/12-|-18--17--15-|-17---------|
 B|--------|-----------|------------|-----------|------------|-----18--15-|
 G|--------|-----------|------------|-----------|------------|------------|
 D|--------|-----------|------------|-----------|------------|------------|
 A|--------|-----------|------------|-----------|------------|------------|
 D|--------|-----------|------------|-----------|------------|------------|

[Bb] [Gm] [Bb] [A] [Gm]  
[Gm] [A]  
 
 e|-15--13--12-|-13-|-6-|-5-|----|---|---|-5-|
 B|------------|----|---|---|-8--|-6-|-8-|---|
 G|------------|----|---|---|----|---|---|---|
 D|------------|----|---|---|----|---|---|---|
 A|------------|----|---|---|----|---|---|---|
 D|------------|----|---|---|----|---|---|---|

[Bb] [A] [Bb] [C] [Dm] [C]  
[Dm]  
 
 e|-6-|-5-|-6-|-10-|-12-|-10-|-10-|-12-|
 B|---|---|---|----|----|----|----|----|
 G|---|---|---|----|----|----|----|----|
 D|---|---|---|----|----|----|----|----|
 A|---|---|---|----|----|----|----|----|
 D|---|---|---|----|----|----|----|----|

Verse 3:
If [Dm]you can't stand
The way this place is
Take, yourself to
higher places
(Repeat Chorus)
Outro:
[Dm]Oh [F]oh[Gm] [F]
[C]Higher [Bb]pla[A]ces
[Dm]Oh [F]oh[Gm] [F]
to [C]Higher [Bb]pla[A]ces
[Dm]Oh [F]oh[Gm] [F]
[C]Higher [Bb]pla[A]ces
[Dm]Take your[F]self to
C Bb A Dm(hold)
higher places

Important: The song above is NOT stored on the Chordie server. The original song is hosted at www.guitaretab.com. Chordie works as a search engine and provides on-the-fly formatting. Chordie does not index songs against artists'/composers' will. To remove this song please click here.

Text color:
Chord color:
Chord grids: 
Font size:    
Page size: 

A Bb C Dm F Gm
Rate #1 of 6 versions

Jango Player

Login - add to songbook

SHARE PAGE  



You need to log in to post comments