Guitar Tabs, Chords and Lyrics
Server problems seems to be fixed. Chordie has been experiencing problems with songs disappearing. These issues now seems to be fixed, but still verifying the fix. If you find anything strange, please email admin@chordie.com.


The Arsonist  Thrice

Drop D
I like this song lots.
Q E E Q E E Q E E Q E E Q E E Q E E
 
 E||------------------------------------|------------------------------------|
 B||------------------------------------|------------------------------------|
 G||------------------------------------|------------------------------------|
 D||------------------------------------|------------------------------------|
 A||--9\-------5--0----2--3-------2--0--|--9\-------5--0----2--3-------------|
 D||--9\---------------------3----------|--9\---------------------3----2--0--|

[E] [E] [E] [E] [E] [E] [E] [E] [E] [E] [E] [E] [E] [E] [E] [E] [E] [E] [E] [E] [E] [E] [E] [E]  
 
 --2--2--2--2--2--2--2--2--2--2--2--2--|--------------------0--0--0--0--0--0--|
 --0--0--0--0--0--0--0--0--0--0--0--0--|--3--3--3--3--3--3--x--x--x--x--x--x--|
 --------------------------------------|--0--0--0--0--0--0--0--0--0--0--0--0--|
 --------------------------------------|--------------------------------------|
 --------------------------------------|--------------------------------------|
 --------------------------------------|--------------------------------------|

W Q E E Q E E Q E E
 
 -------------------|------------------------------------|
 -------------------|------------------------------------|
 -------------------|------------------------------------|
 -------------------|------------------------------------|
 -------------------|--9\-------5--0----2--3-------2--0--|
 -------------------|--9\---------------------3----------|

Q E E Q E E Q E E E E E E E E E E E E E E
 
 ------------------------------------|--2--2--2--2--2--2--2--2--2--2--2--2--|
 ------------------------------------|--0--0--0--0--0--0--0--0--0--0--0--0--|
 ------------------------------------|--------------------------------------|
 ------------------------------------|--------------------------------------|
 --9\-------5--0----2--3-------------|--------------------------------------|
 --9\---------------------3----2--0--|--------------------------------------|

[E] [E] [E] [E] [E] [E] [E] [E] [E] [E] [E] [E] [E] [E] [E] [E] [E] [E] [E] [E] [E] [E] [E] [E]  
 
 --------------------0--0--0--0--0--0--|--2--2--2--2--2--2--2--2--2--2--2--2--|
 --3--3--3--3--3--3--x--x--x--x--x--x--|--0--0--0--0--0--0--0--0--0--0--0--0--|
 --0--0--0--0--0--0--0--0--0--0--0--0--|--------------------------------------|
 --------------------------------------|--------------------------------------|
 --------------------------------------|--------------------------------------|
 --------------------------------------|--------------------------------------|

[E] [E] [E] [E] [E] [E] [E] [E] [E] [E] [E] [E] [E] [E] [E] [E] [E] [E] [E] [E] [E] [E] [E] [E]  
 
 --3--3--3--3--3--3--0--0--0--0--0--0--|--2--2--2--2--2--2--2--2--2--2--2--2--|
 --2--2--2--2--2--2--x--x--x--x--x--x--|--0--0--0--0--0--0--0--0--0--0--0--0--|
 --------------------2--2--2--2--2--2--|--------------------------------------|
 --------------------------------------|--------------------------------------|
 --------------------------------------|--------------------------------------|
 --------------------------------------|--------------------------------------|

E E E E E E E E E E E E E E E E E E H.
 
 --3--3--3--3--3--3--5--5--5--5--5--5--|----------------------------------|
 --2--2--2--2--2--2--5--5--5--5--5--5--|--------------------3~------------|
 --------------------------------------|-----------4--2-------------------|
 --------------------------------------|--5--5--5--------0----------------|
 --------------------------------------|--5--5--5-------------------------|
 --------------------------------------|--5--5--5-------------------------|

E E E E E E E E E E E E E E E E E E H.
 
 --------------------------------------|----------------------------------|
 --------------------0--0--0--0--0--0--|--------------------3~------------|
 -----------2--0-----4--4--4--4--4--4--|-----------0----------------------|
 --2--2--2--------0--------------------|--5--5--5-----2-------------------|
 --2--2--2-----------------------------|--5--5--5--------0----------------|
 --2--2--2-----------------------------|--5--5--5-------------------------|

[E] [E] [E] [E] [E] [E] [E] [E] [E] [E] [E] [E] [E] [E] [E] [E] [E] [E] [E] [E] [E] [E]  
 
 --------------------------------------|---------------------------------|
 --------------------------------------|---------------------------------|
 -----------2--0-----0--0--0--0--0--0--|---------------------------------|
 --2--2--2--------0--5--5--5--5--5--5--|---------------------------------|
 --2--2--2-----------------------------|---------------------------------|
 --2--2--2-----------------------------|--0--5--4--0--10--5--0--5--0--6--|

[E] [E] [E] [E] [E] [E] [E] [E] [E] [E] [E] [E] [E] [E] [E] [E] [E] [E] [E] [E] [E] [E]  
 
 ---------------------------------------|---------------------------------|
 ---------------------------------------|---------------------------------|
 ---------------------------------------|---------------------------------|
 ---------------------------------------|---------------------------------|
 ---------------------------------------|---------------------------------|
 --0--5--4--0--10--5--0--5--0--6--0--7--|--0--5--4--0--10--5--0--5--0--6--|

PM
E E E E E E E E E E E E E E Q
 
 ---------------------------------------------------|
 ---------------------------------------------------|
 ---------------------------------------------------|
 ---------------------------------------------------|
 ---------------------------------------------9\----|
 --0--5--4--0--10--5--0--5--0--6--0--7--9--0--9\----|

[E] [E] [E] [E] [E] [E] [E] [E] [E] [E] [E] [E] [E] [E] [E] [E] [E] [E] [E] [E] [E] [E]  
 
 ---------------------------------|---------------------------------------|
 ---------------------------------|---------------------------------------|
 ---------------------------------|---------------------------------------|
 ---------------------------------|---------------------------------------|
 ---------------------------------|---------------------------------------|
 --0--5--4--0--10--5--0--5--0--6--|--0--5--4--0--10--5--0--5--0--6--0--7--|

[E] [E] [E] [E] [E] [E] [E] [E] [E] [E]  
 
 ---------------------------------|
 ---------------------------------|
 ---------------------------------|
 ---------------------------------|
 ---------------------------------|
 --0--5--4--0--10--5--0--5--0--6--|

PM
E E E E E E E E E E E E E E Q
 
 ---------------------------------------------------|
 ---------------------------------------------------|
 ---------------------------------------------------|
 ---------------------------------------------------|
 ---------------------------------------------9\----|
 --0--5--4--0--10--5--0--5--0--6--0--7--9--0--9\----|

Q E E Q E E Q E E Q E E Q E E Q E E
 
 ------------------------------------|------------------------------------|
 ------------------------------------|------------------------------------|
 ------------------------------------|------------------------------------|
 ------------------------------------|------------------------------------|
 --9\-------5--0----2--3-------2--0--|--9\-------5--0----2--3-------------|
 --9\---------------------3----------|--9\---------------------3----2--0--|

Q E E Q E E Q E E Q E E Q E E Q E E
 
 ------------------------------------|------------------------------------|
 ------------------------------------|------------------------------------|
 ------------------------------------|------------------------------------|
 ------------------------------------|------------------------------------|
 --9\-------5--0----2--3-------2--0--|--9\-------5--0----2--3-------------|
 --9\---------------------3----------|--9\---------------------3----2--0--|

E E E E E E H. E E E E E E E E E E E E
 
 ----------------------------------|--------------------------------------|
 --------------------3~------------|--------------------0--0--0--0--0--0--|
 -----------4--2-------------------|-----------2--0-----4--4--4--4--4--4--|
 --5--5--5--------0----------------|--2--2--2--------0--------------------|
 --5--5--5-------------------------|--2--2--2-----------------------------|
 --5--5--5-------------------------|--2--2--2-----------------------------|

E E E E E E H. E E E E E E E E E E E E
 
 ----------------------------------|--------------------------------------|
 --------------------3~------------|--------------------------------------|
 -----------0----------------------|-----------2--0-----0--0--0--0--0--0--|
 --5--5--5-----2-------------------|--2--2--2--------0--5--5--5--5--5--5--|
 --5--5--5--------0----------------|--2--2--2-----------------------------|
 --5--5--5-------------------------|--2--2--2-----------------------------|

[E] [E] [E] [E] [E] [E] [E] [E] [E] [E] [E] [E] [E] [E] [E] [E] [E] [E] [E] [E] [E] [E]  
 
 ---------------------------------|---------------------------------------|
 ---------------------------------|---------------------------------------|
 ---------------------------------|---------------------------------------|
 ---------------------------------|---------------------------------------|
 ---------------------------------|---------------------------------------|
 --0--5--4--0--10--5--0--5--0--6--|--0--5--4--0--10--5--0--5--0--6--0--7--|

[E] [E] [E] [E] [E] [E] [E] [E] [E] [E] [E] [E] [E] [E] [E] [E] [E] [E] [E] [E] [E] [E]  
 
 ---------------------------------|---------------------------------------|
 ---------------------------------|---------------------------------------|
 ---------------------------------|---------------------------------------|
 ---------------------------------|---------------------------------------|
 ---------------------------------|---------------------------------------|
 --0--5--4--0--10--5--0--5--0--6--|--0--5--4--0--10--5--0--5--0--6--0--7--|

[E] [E] [E] [E] [E] [E] [E] [E] [E] [E]  
 
 ---------------------------------|
 ---------------------------------|
 ---------------------------------|
 ---------------------------------|
 ---------------------------------|
 --0--5--4--0--10--5--0--5--0--6--|

PM
E E E E E E E E E E E E E E Q
 
 ---------------------------------------------------|
 ---------------------------------------------------|
 ---------------------------------------------------|
 ---------------------------------------------------|
 ---------------------------------------------9\----|
 --0--5--4--0--10--5--0--5--0--6--0--7--9--0--9\----|

Q Q Q Q Q Q Q Q
 
 --------------------------------------------------|
 --17----17----17----17----17----17----17----17----|
 --------------------------------------------------|
 --14----14----14----14----14----14----14----14----|
 --------------------------------------------------|x2
 --------------------------------------------------|

Q Q Q Q Q Q Q Q
 
 --------------------------------------------------|
 --19----19----19----19----19----19----19----19----|
 --------------------------------------------------|
 --16----16----16----16----16----16----16----16----|
 --------------------------------------------------|x2
 --------------------------------------------------|

Q Q Q Q Q Q Q Q
 
 --------------------------------------------------|
 --20----20----20----20----20----20----20----20----|
 --------------------------------------------------|
 --17----17----17----17----17----17----17----17----|
 --------------------------------------------------|x2
 --------------------------------------------------|

Q Q Q Q Q Q Q Q
 
 --17----17----17----17----17----17----17----17----|
 --------------------------------------------------|
 --15----15----15----15----15----15----15----15----|
 --------------------------------------------------|
 --------------------------------------------------|
 --------------------------------------------------|

Q Q Q Q Q Q Q Q
 
 --18----18----18----18----18----18----18----18----|
 --------------------------------------------------|
 --16----16----16----16----16----16----16----16----|
 --------------------------------------------------|
 --------------------------------------------------|
 --------------------------------------------------|

W W W W
 
 --19----------------~----------------|--~----------------~----------------||
 --18----------------~----------------|--~----------------~----------------||
 --16----------------~----------------|--~----------------~----------------||
 -------------------------------------|------------------------------------||
 -------------------------------------|------------------------------------||
 -------------------------------------|------------------------------------||

Duration Legend
 
 ---------------

W - whole
H - half
Q - quarter
E - 8th
S - 16th
T - 32nd
X - 64th
. - note dotted
|-n-| - n-tuplets

Important: The song above is NOT stored on the Chordie server. The original song is hosted at www.guitaretab.com. Chordie works as a search engine and provides on-the-fly formatting. Chordie does not index songs against artists'/composers' will. To remove this song please click here.

Text color:
Chord color:
Chord grids: 
Font size:    
Page size: 

E
Rate #1 of 2 versions

Jango Player

Login - add to songbook

SHARE PAGE  




You need to log in to post comments