Guitar Tabs, Chords and Lyrics
Server problems seems to be fixed. Chordie has been experiencing problems with songs disappearing. These issues now seems to be fixed, but still verifying the fix. If you find anything strange, please email admin@chordie.com.


Broken Lungs  Thrice

 
 ----------------------------------------------------------------------------

Broken Lungs - Thrice
 
 ----------------------------------------------------------------------------

This might be a little major, I don't care.
Tabbed by: ma12789
Tuning: Standard
Intro:
 
 |----------3---------------3----------|
 |--0---0-------0---0---0-------0------|
 |----5---5---5---5---5---5---5---5----| x 2
 |-------------------------------------|
 |-------------------------------------|
 |-------------------------------------|

[Am] Woke up to a[C] brand new [G]skyline
[Am] We licked our wounds an[C]d mourned the [G]dead
[Am] Swallowed the[C] story, hook and [G]sinker
Is that what we [Am]meant, when we sai[C]d That we[G] never would forget?
F C(2)(8th fret)
Are we fools and cowards all
[F] To let them cover up their l[C]ies?
[F] 'Cause we all watched the buildings [C(2)]fall
[F] And watched the scales fall from our [C]eyes
Solo: C
 
 |-8-7-----------------------------------3---------------3---x--|
 |-----8-------8-----------------0h1-0h1---1-0h1-0h1-0h1-----x--|
 |-------9-7-9---9--------7------0---------------------------x--|
 |------------------10-10---10---2---------------------------x--|
 |-------------------------------3---------------------------x--|
 |-----------------------------------------------------------x--|
 |-8-7-----------------------------------3---------------3---x--|
 |-----8-------8-----------------0h1-0h1---1-0h1-0h1-0h1-----x--|
 |-------9-7-9---9--------7-7----0---------------------------x--|
 |------------------10-10--------2---------------------------x--|
 |-------------------------------3---------------------------x--|
 |-----------------------------------------------------------x--|

*Play twice*
[Am] A fire burns[C] beneath [G]Manhattan
[Am] Still we breathe w[C]ith broken [G]lungs
[Am] We act like [C]none of this [G]matters
Is that what we m[Am]eant, when we sai[C]d That we'd s[G]ing what must be sung?
[F] Are we fools and cowards [C(2)]all
[F] To let them cover up their [C]lies?
[F] 'Cause we all watched the buildings[C(2)] fall
[F] And watched the scales fall from our [C]eyes
[E]We [E7]want [G]answers
[E]Scream [E7]from the [G]roofs
[E]We [E7]want [G]justice
[E]We [E7]want the t[Am]ruth
You can end like the intro or just ring the Am.
[-End-]  
| h hammer-on
| x Mute note
============================================================================

Important: The song above is NOT stored on the Chordie server. The original song is hosted at www.guitaretab.com. Chordie works as a search engine and provides on-the-fly formatting. Chordie does not index songs against artists'/composers' will. To remove this song please click here.

Text color:
Chord color:
Chord grids: 
Font size:    
Page size: 

Am C C(2) E E7 F G
Rate #1 of 3 versions

Jango Player

Login - add to songbook

SHARE PAGE  



You need to log in to post comments