Guitar Tabs, Chords and Lyrics
Server problems seems to be fixed. Chordie has been experiencing problems with songs disappearing. These issues now seems to be fixed, but still verifying the fix. If you find anything strange, please email admin@chordie.com.


The Weight  Thrice

Thrice-The Weight (acoustic)
Tuning: Standard
Capo 4
CHORDS:
[D] [D2] [D3] [Em] [Am] [Bm] [C] [C2] [G]  
 
 e|---2---0---0---0---0---0---0---0---3--------------------------------|
 B|---3---3---0---0---0---0---1---0---3--------------------------------|
 G|---2---0---7---0---4---2---0---5---0--------------------------------|
 D|---0---4---7---2---4---2---2---5---0--------------------------------|
 A|-------5---5---2---2---0---3---3---2--------------------------------|
 E|---------------0-------------------3--------------------------------|

VERSE RIFF:
 
 e|--(0)-(0)-(0)-(0)-(0)-(0)-(0)-(0)-(0)-(0)-(0)-(0)-------------------|
 B|--(0)-(0)-(0)-(0)-(0)-(0)-(0)-(0)-(0)-(0)-(0)-(0)-------------------|
 G|---0---0---2p0-0---0---0---2---2---2---0---0---0--------------------|
 D|---2---2---2---2---2---2---2---2---2---2---2---2--------------------|
 A|---2---2---2---2---2---2---0---0---0---2---2---2--------------------|
 E|---0---0---0---0---0---0---------------0---0---0--------------------|

[1] [+] [2] [+] [3] [+] [1] [+] [2] [+] [3] [+] [1] [+] [2] [+] [3] [+] [1] [+] [2] [+] [3] [+] 
PRECHORUS RIFF:
 
 e|--(0)-(0)-(0)-(0)-(0)-(0)-(0)-(0)-(0)-(0)-(0)-(0)-------------------|
 B|--(0)-(0)-(0)-(0)-(0)-(0)-(0)-(0)-(0)-(0)-(0)-(0)-------------------|
 G|---0---0---0---0---0---0---0---0---0---0---0---0--------------------|
 D|---2---2---2---0h2-2---2---0h2-2---2---0h2-2---2--------------------|
 A|---2---2---2---2---2---2---2---2---2---2---2---2--------------------|
 E|---0---0---0---0---0---0---0---0---0---0---0---0--------------------|

[1] [+] [2] [+] [3] [+] [1] [+] [2] [+] [3] [+] [1] [+] [2] [+] [3] [+] [1] [+] [2] [+] [3] [+] 
VERSE 1:
Verse Riff
There's many who'll tell you, they'll give you their love
Verse Riff
When they say, give they mean take
Verse Riff
Hang 'round just like vultures till push comes to shove
Verse Riff
Take flight when the earth starts to shake, yeah
Verse Riff x2
Verse Riff
Someone may say that they'll always be true
Verse Riff
Slip out the door 'fore the dawn
D2 C Verse Riff
But I won't leave you hanging on
Verse Riff
Another may stay till they find someone new
Verse Riff
Before you know they'll be gone
D2 C Verse Riff
But I won't leave you hanging on
D2 C Prechorus Riff
No, I won't, won't be that someone
CHORUS:
And [Em]come [Bm]what [Am]may
[D3]I won't [C2]abandon you or [Am]leave you behind
Because [Em]love is a [D]loyalty [G]sworn
Not a [D]burning for a [C]moment
[Em]Come [Bm]what [Am]may
[D3]I will be [C2]standing right [Am]here by your side
I won't [Em]run awa[D]y though the [G]storm's getting [D]worse
C Verse Riff x2
And there's no end in sight
VERSE 2:
Verse Riff
Some talk of destiny, others of fate
Verse Riff
Soon they'll be saying goodbye
D2 C Verse Riff
But I won't leave you high and dry
Verse Riff
'Cause a ring don't mean nothing If you can't haul the weight
Verse Riff
Some of them won't even try
D2 C Verse Riff
But I won't leave you high and dry
D2 C Prechorus Riff
I won't leave you wondering why
CHORUS:
And [Em]come [Bm]what [Am]may
[D3]I won't [C2]abandon you or [Am]leave you behind
Because [Em]love is a [D]loyalty [G]sworn
Not a [D]burning for a [C]moment
[Em]Come [Bm]what [Am]may
[D3]I will be [C2]standing right [Am]here by your side
I won't [Em]run awa[D]y though the [G]storm's getting [D]worse
And there's [C]no end in [Am]sight
BRIDGE:
Storms will surely [G]come
True [Am]love is a choice you must make and you are the [G]one
That [Am]I have set my heart to [Em]choose
As long as I l[C2]ive, I s[D]wear I'll see this [Em]through
2ND CHORUS: (palm mute)
And [Em]come what may
I won't [G]abandon you or [Am]leave you behind
Because [Em]love is a loyalty sworn
Not a [G]burning for a [Am]moment
[Em]Come what may
I will be [G]standing right [Am]here by your side
I won't [Em]run awa[Am]y though the storm's getting [G]worse
And there's [Am]no end in sight
CHORUS:
And [Em]come [Bm]what [Am]may
[D3]I won't [C2]abandon you or [Am]leave you behind
Because [Em]love is a [D]loyalty [G]sworn
Not a [D]burning for a [C]moment
[Em]Come [Bm]what [Am]may
[D3]I will be [C2]standing right [Am]here by your side
I won't [Em]run awa[D]y though the [G]storm's getting [D]worse
And there's [C]no end in si[Em]ght

Important: The song above is NOT stored on the Chordie server. The original song is hosted at www.guitaretab.com. Chordie works as a search engine and provides on-the-fly formatting. Chordie does not index songs against artists'/composers' will. To remove this song please click here.

Text color:
Chord color:
Chord grids: 
Font size:    
Page size: 

Am Bm C C2 D D2 D3 Em G
Rate #1 of 3 versions

Jango Player

Login - add to songbook

SHARE PAGE  



You need to log in to post comments