Guitar Tabs, Chords and Lyrics
Server problems seems to be fixed. Chordie has been experiencing problems with songs disappearing. These issues now seems to be fixed, but still verifying the fix. If you find anything strange, please email admin@chordie.com.


See You in the Shallows  Thrice

As recorded by Thrice
(From the 2002 Album THE ILLUSION OF SAFETY)
Transcribed by Mike Ciauri
Words and Music by Thrice
Arranged by Thrice
Gtr I (C# G# C# F# A# D#) - 'Tepeii'
Gtr II (C# G# C# F# A# D#) - 'Dustin'
Gtr III (C# G# C# F# A# D#) - 'Low Fi'
Gtr IV (C# G# C# F#) - 'Eddie'
Gtr V (C# G# C# F# B E) - 'Eddie2'
Q=200
[4/4] Gtr I
E S S E E E E E E +E E E Q E E E +E E E Q E E E +E E E Q E E E
 
 |-------------------|------------------|------------------|------------------|
 |-------------------|------------------|------------------|------------------|
 |-------------------|------------------|------------------|------------------|
 |-----------3-3---5-|-(5)-5---2--2---0-|-(0)-0---3--0---2-|-(2)-2---3--2-0-2-|
 |-----------5-5---3-|-(3)-3---3--3---1-|-(1)-1---1--1---3-|-(3)-3---3--3-3-3-|
 |-0-0-0-0-0-----0---|-------0------0---|-------0------0---|-------0----------|

|
| Gtr II
| W +W +W +W
 
 |-------------------|------------------|------------------|------------------|
 |-------------------|------------------|------------------|------------------|
 |-------------------|------------------|------------------|------------------|
 |-0-----------------|-(0)--------------|-(0)--------------|-(0)--------------|
 |-0-----------------|-(0)--------------|-(0)--------------|-(0)--------------|
 |-0-----------------|-(0)--------------|-(0)--------------|-(0)--------------|

|
| Gtr IV
| W +W +W +W
 
 |-------------------|------------------|------------------|------------------|
 |-------------------|------------------|------------------|------------------|
 |-------------------|------------------|------------------|------------------|
 |-0-----------------|-(0)--------------|-(0)--------------|-(0)--------------|

E S S E E E E E E +E E E Q E E E +E E E E E E E E W
 
 |--------------------|------------------|-------------------|----------|
 |--------------------|------------------|-------------------|----------|
 |--------------------|------------------|-------------------|----------|
 |------------3-3---5-|-(5)-5---2--2---0-|-(0)-0-0-0-0-0-0-0-|--0-------|
 |------------5-5---3-|-(3)-3---3--3---2-|-(2)-2-2-2-2-2-2-1-|-(1)------|
 |-0-0-0--0-0-----0---|-------0------0---|-------------------|----------|

|
| E E H. W W W
 
 |--------------------|------------------|-------------------|----------|
 |--------------------|------------------|-------------------|----------|
 |--------------------|------------------|-------------------|----------|
 |-0------------------|------------------|-------------------|----------|
 |-0------------------|------------------|-------------------|----------|
 |-0------------------|------------------|-------------------|----------|

|
| E E H.
 
 |--------------------|------------------|-------------------|----------|
 |--------------------|------------------|-------------------|----------|
 |--------------------|------------------|-------------------|----------|
 |-0------------------|------------------|-------------------|----------|

E S S E E E E E E +E E E Q E E E
 
 |-------------------|-------------------|
 |-------------------|-------------------|
 |-------------------|-------------------|
 |-0-0-0-0-0-3-2-x-5-|-(5)-3-2-3---2-0-2-|
 |-------------------|-------------------|
 |-------------------|-------------------|

|
| E S S E E E E E E +E E E Q E E E
 
 |-------------------|-------------------|
 |-------------------|-------------------|
 |-------------------|-------------------|
 |-----------3-3---5-|-(5)-----2-------0-|
 |-----------5-5---3-|-(3)-----3-------1-|
 |-0-0-0-0-0-----0---|-----0-0-----0-0---|

|
| E E E E E E E E E E E E E E E E
 
 |-------------------|-------------------|
 |-------------------|-------------------|
 |---------------3---|--3--3-3-3-3-3-3-1-|
 |-0-0-0-0-0-0-0-----|-------------------|

+E S S E E E E E E +E E E a Q E E E
 
 |---------------------|----------------------|
 |---------------------|----------------------|
 |---------------------|---------1-/2---------|
 |-(2)-0-0-0-0-3-2-x-5-|-(5)-3-2------5-3-2---|
 |---------------------|----------------------|
 |---------------------|----------------------|

|
| +E E E Q E E E +E E E Q E E E
 
 |---------------------|----------------------|
 |---------------------|----------------------|
 |---------------------|----------------------|
 |-(0)-----3---------2-|-(2)--------3---2-0-2-|
 |-(1)-----1---------3-|-(3)--------3---3-3-3-|
 |-----0-0-----0-0-----|-----0-0--------------|

|
| E E E E E E E E E E E E E E E E
 
 |---------------------|----------------------|
 |---------------------|----------------------|
 |--1--1-1-1-1-1-1-3---|--3--3-3-3--3-3-3-3---|
 |---------------------|----------------------|

E S S E E E E E E +E E E Q E E E
 
 |-------------------|-------------------|
 |-------------------|-------------------|
 |-------------------|-------------------|
 |-0-0-0-0-0-3-2-x-5-|-(5)-3-2-3---2-0-2-|
 |-------------------|-------------------|
 |-------------------|-------------------|

|
| E S S E E E E E E +E E E Q E E E
 
 |-------------------|-------------------|
 |-------------------|-------------------|
 |-------------------|-------------------|
 |-----------3-3---5-|-(5)-----2-------3-|
 |-----------5-5---3-|-(3)-----3-------1-|
 |-0-0-0-0-0-----0---|-----0-0-----0-0---|

|
| E E E E E E E E E E E E E E E E
 
 |-------------------|-------------------|
 |-------------------|-------------------|
 |-----------------3-|--3--3-3-3-3-3-3-1-|
 |-0-0---0-0-0-0-0---|-------------------|

+E S S E E E E E E +E E E a Q E E E
 
 |---------------------|----------------------|
 |---------------------|----------------------|
 |---------------------|---------2-/3---2-0-2-|
 |-(2)-0-0-0-0-3-2-x-5-|-(5)-3-2--------------|
 |---------------------|----------------------|
 |---------------------|----------------------|

|
| +E E E Q E E E +E E E Q E E E
 
 |---------------------|----------------------|
 |---------------------|----------------------|
 |---------------------|----------------------|
 |-(3)-------0-------2-|-(2)--------3---2-0-2-|
 |-(1)-------1-------3-|-(3)--------3---3-3-3-|
 |-----0---0-----0-0---|-----0-0--------------|

|
| E E E E E E E E E E E E E E E E
 
 |---------------------|----------------------|
 |---------------------|----------------------|
 |--1--1---1-1-1-1-1-3-|--3--3-3----3-3-3-3-3-|
 |---------------------|----------------------|

E E E E S S E E E E E E E E E E E
 
 |-----------------------------|------------------------|
 |-------10-----10-13-10-------|------------------------|
 |----10-----10----------10----|-12----12----12----10---|
 |-10-----------------------10-|----10----10----10------|
 |-----------------------------|------------------------|
 |-----------------------------|------------------------|

|
| Q H. W
 
 |-----------------------------|------------------------|
 |-----------------------------|------------------------|
 |-----------------------------|------------------------|
 |-10--------------------------|------------------------|
 |--0--------------------------|------------------------|
 |--0--------------------------|------------------------|

|
| E
 
 |-----------------------------|------------------------|
 |-----------------------------|------------------------|
 |-----------------------------|------------------------|
 |--0--------------------------|------------------------|

[E] [E] [E] [E] [E] [E] [E] [E] [E] [E] [E] [E] [E] [E] [E] [E]  
 
 ||--------------------------|-------------------------|
 ||o-------------------------|-------------------------|
 ||--10s12-12-12-12s10-10-10-|--10s==9--9-9--9s10-10---|
 ||--------------------------|-------------------------|
 ||o--8s10-10-10-10s=8--8--8-|---8s==7--7-7--7s=8--8---|
 ||--------------------------|-------------------------|

|
| Q Q E E E E +E E Q E E Q
 
 ||--------------------------|-------------------------|
 ||o-------------------------|-------------------------|
 ||--------------------------|-------------------------|
 ||--10----10----10-10-10-10-|-(10)-10-10---10-10-10---|
 ||o--0-----0-----0--0--0--0-|--(0)--0--0----0--0--0---|
 ||---0-----0-----0--0--0--0-|--(0)--0--0----0--0--0---|

|
| E E E E E E E E E E E E E E E E
 
 ||--------------------------|-------------------------|
 ||o-------------------------|-------------------------|
 ||o-------------------------|-------------------------|
 ||---0--0--0--0--0--0--0--0-|---0---0--0-0--0--0--0-0-|

E E E E S S E E E E E E E E E E E
 
 |----------------------------|--------------------------|
 |-------10----10-13-10-------|--------------------------|
 |----10----10----------10----|--12-----12----12----10---|
 |-10----------------------10-|------10----10----10------|
 |----------------------------|--------------------------|
 |----------------------------|--------------------------|

|
| Q Q E E E E +E E Q E E Q
 
 |----------------------------|--------------------------|
 |----------------------------|--------------------------|
 |----------------------------|--------------------------|
 |-10----10----10----10-10-10-|-(10)-10-10----10-10-10---|
 |--7-----7-----7-----7--7--7-|--(7)--7--7-----7--7--7---|
 |--7-----7-----7-----7--7--7-|--(7)--7--7-----7--7--7---|

|
| E E E E E E E E E E E E E E E E
 
 |----------------------------|--------------------------|
 |----------------------------|--------------------------|
 |----------------------------|--------------------------|
 |--7--7--7--7--7--7--7--7----|---7---7--7--7--7--7--7-7-|

[E] [E] [E] [E] [E] [E] [E] [E] [E] [E] [E] [E] [E] [E] [E] [E]  
 
 |-------------------------|--------------------------|
 |-------------------------|--------------------------|
 |-10s12-12-12-12s14-14-14-|--14s=12-12-12-12s10-10---|
 |-------------------------|--------------------------|
 |--8s10-10-10-10s12-12-12-|--12s=10-10-10-10s=8--8---|
 |-------------------------|--------------------------|

|
| Q Q E E E E +E E Q E E Q
 
 |-------------------------|--------------------------|
 |-------------------------|--------------------------|
 |-------------------------|--------------------------|
 |-10----10----10-10-10-10-|-(10)-10-10----10-10-10---|
 |--8-----8-----8--8--8--8-|--(8)--8--8-----8--8--8---|
 |--8-----8-----8--8--8--8-|--(8)--8--8-----8--8--8---|

|
| E E E E E E E E E E E E E E E E
 
 |-------------------------|--------------------------|
 |-------------------------|--------------------------|
 |-------------------------|--------------------------|
 |--8--8--8--8--8--8--8--8-|---8---8--8--8--8--8--8-8-|

1.
E E E E S S E E E E E E E E E E E
 
 |----------------------------|---------------------------||
 |-------10----10-13-10-------|--------------------------o||
 |----10----10----------10----|--12-----12----12----10----||
 |-10----------------------10-|------10----10----10-------||
 |----------------------------|--------------------------o||
 |----------------------------|---------------------------||

|
| Q Q E E E E +E E Q E E Q
 
 |----------------------------|---------------------------||
 |----------------------------|--------------------------o||
 |----------------------------|---------------------------||
 |-10----10----10----10-10-10-|-(10)-10-10----10-10-10----||
 |--8-----8-----8-----8--8--8-|--(8)--8--8-----8--8--8---o||
 |--8-----8-----8-----8--8--8-|--(8)--8--8-----8--8--8----||

|
| E E E E E E E E E E E E E E E E
 
 |----------------------------|---------------------------||
 |----------------------------|--------------------------o||
 |----------------------------|--------------------------o||
 |--8--8--8--8--8--8--8--8----|---8---8--8--8--8--8--8-8--||

2.
Q Q E E E E +E E E E E E E E
 
 |------------------||---------------------------|
 |------------------||---------------------------|
 |-7---7---7-7-7-10-||-(10)-10-10-10-10-10-10-10-|
 |------------------||---------------------------|
 |-5---5---5-5-5--8-||--(8)--8--8--8--8--8--8--8-|
 |------------------||---------------------------|

|
| Q Q E E E E +E E Q E E E E
 
 |------------------||---------------------------|
 |------------------||---------------------------|
 |------------------||---------------------------|
 |-0---0---0-0-0--3-||--(3)--3--3-----3--3--3--3-|
 |-0---0---0-0-0--3-||--(3)--3--3-----3--3--3--3-|
 |-0---0---0-0-0--3-||--(3)--3--3-----3--3--3--3-|

|
| E E E E E E E E E E E E E E E E
 
 |------------------||---------------------------|
 |------------------||---------------------------|
 |------------------||---------------------------|
 |-0-0-0-0-0-0-0--3-||---3---3--3--3--3--3--3--3-|

Q E E E E E E +E E E Q E Q
 
 |-----------------------|--------------------|
 |-----------------------|--------------------|
 |-12---12-12-12-12-12-9-|-(9)-9-9-10-----9-9-|
 |-----------------------|--------------------|
 |-10---10-10-10-10-10-7-|-(7)-7-7--8-----7-7-|
 |-----------------------|--------------------|

|
| Q Q E E E E +E E E Q E E E
 
 |-----------------------|--------------------|
 |-----------------------|--------------------|
 |--3----3-----3--3--3---|--------------------|
 |--3----3-----3--3--3-3-|-(3)-3-3--5---5-5-5-|
 |--1----1-----1--1--1-3-|-(3)-3-3--5---5-5-5-|
 |---------------------3-|-(3)-3-3--5---5-5-5-|

|
| E E E E E E E E E E E E E E E E
 
 |-----------------------|--------------------|
 |-----------------------|--------------------|
 |--1-1--1--1--1--1--1---|--------------------|
 |---------------------3-|--3--3-3--5-5-5-5-5-|

Q Q E E E E +E E E E E E E E
 
 |------------------|--------------------|
 |------------------|--------------------|
 |-7---7---7-7-10-9-|-(9)-9-9-9-9-9-9-9--|
 |------------------|--------------------|
 |-5---5---5-5--8-7-|-(7)-7-7-7-7-7-7-7--|
 |------------------|--------------------|

|
| Q Q E E E E +E E Q E E E E
 
 |------------------|--------------------|
 |------------------|--------------------|
 |----------------5-|-(5)-5-5---5-5-5-5--|
 |-0---0---0-0--0-5-|-(5)-5-5---5-5-5-5--|
 |-0---0---0-0--0-3-|-(3)-3-3---3-3-3-3--|
 |-0---0---0-0--0---|--------------------|

|
| E E E E E E E E E E E E E E E E
 
 |------------------|--------------------|
 |------------------|--------------------|
 |----------------3-|--3--3-3-3-3-3-3-3--|
 |-0-0-0-0-0-0--0---|--------------------|

Q Q E E E E +E E Q Q E E
 
 |---------------------|-------------------|
 |---------------------|-------------------|
 |-10---10---10-10-9-5-|-(5)-5-5---5---5-5-|
 |---------------------|-------------------|
 |--8----8----8--8-7-3-|-(3)-3-3---3---3-3-|
 |---------------------|-------------------|

|
| Q Q E E E E +E E E Q E E E
 
 |---------------------|-------------------|
 |---------------------|-------------------|
 |--3----3----3--3-3---|-------------------|
 |--3----3----3--3-3-3-|-(3)-3-3-3---3-3-3-|
 |--1----1----1--1-1-3-|-(3)-3-3-3---3-3-3-|
 |-------------------3-|-(3)-3-3-3---3-3-3-|

|
| E E E E E E E E E E E E E E E E
 
 |---------------------|-------------------|
 |---------------------|-------------------|
 |--1-1--1-1--1--1-1---|-------------------|
 |-------------------3-|--3--3-3-3-3-3-3-3-|

Q Q E E E E +E E E E E E E E
 
 |------------------|----------------------------|
 |------------------|----------------------------|
 |-7---7---7-7-7-10-|-(10)-10-10-10-10-10-10-10--|
 |------------------|----------------------------|
 |-5---5---5-5-5--8-|--(8)--8--8--8--8--8--8--8--|
 |------------------|----------------------------|

|
| Q Q E E E E +E E Q E E E E
 
 |------------------|----------------------------|
 |------------------|----------------------------|
 |------------------|----------------------------|
 |-0---0---0-0-0--3-|--(3)--3--3-----3--3--3--3--|
 |-0---0---0-0-0--3-|--(3)--3--3-----3--3--3--3--|
 |-0---0---0-0-0--3-|--(3)--3--3-----3--3--3--3--|

|
| E E E E E E E E E E E E E E E E
 
 |------------------|----------------------------|
 |------------------|----------------------------|
 |------------------|----------------------------|
 |-0-0-0-0-0-0-0--3-|---3---3--3--3--3--3--3--3--|

Q E E E E E E +E E E Q E Q
 
 |-----------------------|--------------------|
 |-----------------------|--------------------|
 |-12---12-12-12-12-12-9-|-(9)-9-9-10---9-9---|
 |-----------------------|--------------------|
 |-10---10-10-10-10-10-7-|-(7)-7-7--8---7-7---|
 |-----------------------|--------------------|

|
| Q Q E E E E +E E E Q E E E
 
 |-----------------------|--------------------|
 |-----------------------|--------------------|
 |--3----3-----3--3--3---|--------------------|
 |--3----3-----3--3--3-3-|-(3)-3-3--5---5-5-5-|
 |--1----1-----1--1--1-3-|-(3)-3-3--5---5-5-5-|
 |---------------------3-|-(3)-3-3--5---5-5-5-|

|
| E E E E E E E E E E E E E E E E
 
 |-----------------------|--------------------|
 |-----------------------|--------------------|
 |--1-1--1--1--1--1--1---|--------------------|
 |---------------------3-|--3--3-3--5-5-5-5-5-|

Q Q E E E E +E E E E E E E E
 
 |------------------|--------------------|
 |------------------|--------------------|
 |-7---7---7-7-10-9-|-(9)-9-9-9-9-9-9-9--|
 |------------------|--------------------|
 |-5---5---5-5--8-7-|-(7)-7-7-7-7-7-7-7--|
 |------------------|--------------------|

|
| Q Q E E E E +E E Q E E E E
 
 |------------------|--------------------|
 |------------------|--------------------|
 |----------------5-|-(5)-5-5---5-5-5-5--|
 |-0---0---0-0--0-5-|-(5)-5-5---5-5-5-5--|
 |-0---0---0-0--0-3-|-(3)-3-3---3-3-3-3--|
 |-0---0---0-0--0---|--------------------|

|
| E E E E E E E E E E E E E E E E
 
 |------------------|--------------------|
 |------------------|--------------------|
 |----------------3-|--3--3-3-3-3-3-3-3--|
 |-0-0-0-0-0-0--0---|--------------------|

E E Q E E E E +W Q Q H W
 
 |--------------------------|-------------|---------------|--------|
 |--------10----11-10-------|-------------|---------------|--------|
 |-----10-------------10----|-------------|-10--10--------|--------|
 |-10-----------------------|-------------|-10--10--------|--------|
 |-----------------------13-|-(13)--------|--8---8--------|--------|
 |--------------------------|-------------|---------------|--------|

|
| Q. Q. Q +W Q Q H W
 
 |--------------------------|-------------|---------------|--------|
 |--------------------------|-------------|---------------|--------|
 |--2--------3--------------|-------------|---------------|--------|
 |--2--------3---------3----|--(3)--------|-10--10--------|--------|
 |--0--------1---------3----|--(3)--------|--8---8--------|--------|
 |---------------------3----|--(3)--------|--8---8--------|--------|

|
| Q. Q. Q +W Q Q H W
 
 |--------------------------|-------------|---------------|--------|
 |--------------------------|-------------|---------------|--------|
 |--0--------1--------------|-------------|---------------|--------|
 |---------------------3----|--(3)--------|--8---8--------|--------|

[E] [E] [E] [E] [E] [E] [E] [E] [E] [E] [E] [E] [E] [E] [E] [E]  
 
 |-------------------------|----------------------|
 |-------------------------|----------------------|
 |-10s12-12-12-12s10-10-10-|-10s9--9-9--9s10-10---|
 |-------------------------|----------------------|
 |--8s10-10-10-10s=8--8--8-|--8s7--7-7--7s=8--8---|
 |-------------------------|----------------------|

|
| Q Q Q Q Q Q Q Q
 
 |-------------------------|----------------------|
 |-------------------------|----------------------|
 |-------------------------|----------------------|
 |-10----10----10----10----|-10---10---10----10---|
 |--0-----0-----0-----0----|--0----0----0-----0---|
 |--0-----0-----0-----0----|--0----0----0-----0---|

|
| Q Q Q Q Q Q Q Q
 
 |-------------------------|----------------------|
 |-------------------------|----------------------|
 |-------------------------|----------------------|
 |--0-----0-----0-----0----|--0----0----0-----0---|

E E E E S S E E E E E E E E E E E
 
 |----------------------------|------------------------|
 |-------10----10-13-10-------|------------------------|
 |----10----10----------10----|-12----12----12----10---|
 |-10----------------------10-|----10----10----10------|
 |----------------------------|------------------------|
 |----------------------------|------------------------|

|
| Q Q Q Q Q Q Q Q
 
 |----------------------------|------------------------|
 |----------------------------|------------------------|
 |----------------------------|------------------------|
 |-10----10----10-------10----|-10----10----10----10---|
 |--7-----7-----7--------7----|--7-----7-----7-----7---|
 |--7-----7-----7--------7----|--7-----7-----7-----7---|

|
| Q Q Q Q Q Q Q Q
 
 |----------------------------|------------------------|
 |----------------------------|------------------------|
 |----------------------------|------------------------|
 |--7-----7-----7-----7-------|--7-----7-----7-----7---|

[E] [E] [E] [E] [E] [E] [E] [E] [E] [E] [E] [E] [E] [E] [E] [E]  
 
 |-------------------------|-------------------------|
 |-------------------------|-------------------------|
 |-10s12-12-12-12s14-14-14-|-14s12-12-12-12s10-10-10-|
 |-------------------------|-------------------------|
 |--8s10-10-10-10s12-12-12-|-12s10-10-10-10s=8--8--8-|
 |-------------------------|-------------------------|

|
| Q Q Q Q Q Q E E E E
 
 |-------------------------|-------------------------|
 |-------------------------|-------------------------|
 |-------------------------|-------------------------|
 |-10----10----10----10----|-10----10----10-10-10-10-|
 |--8-----8-----8-----8----|--8-----8-----8--8--8--8-|
 |--8-----8-----8-----8----|--8-----8-----8--8--8--8-|

|
| Q Q Q Q Q Q E E Q
 
 |-------------------------|-------------------------|
 |-------------------------|-------------------------|
 |-------------------------|-------------------------|
 |--8--8-----8-----8-------|--8-----8-----8--8--8----|

Q Q H W
 
 |---------------|-------------------|
 |---------------|-------------------|
 |-10----10------|-------------------|
 |-10----10------|-------------------|
 |--8-----8------|-------------------|
 |---------------|-------------------|

|
| Q Q H W
 
 |---------------|-------------------|
 |---------------|-------------------|
 |---------------|-------------------|
 |-10----10------|-------------------|
 |--8-----8------|-------------------|
 |--8-----8------|-------------------|

|
| Q Q H Q.. S
 
 |---------------|-------------------|
 |---------------|-------------------|
 |---------------|-------------------|
 |--8--8---------|--------7s===12----|

Q E E E E E E +E E E E E E Q
 
 |------------------------|-------------------------|
 |------------------------|-------------------------|
 |-12---12-12-12s10-10-10-|-(10)s=9--9-9--9s10-10---|
 |------------------------|-------------------------|
 |-10---10-10-10s=8--8--8-|--(8)s=7--7-7--7s=8--8---|
 |------------------------|-------------------------|

|
| Q Q E E E E +E E Q E E Q
 
 |------------------------|-------------------------|
 |------------------------|-------------------------|
 |------------------------|-------------------------|
 |-10---10----10-10-10-10-|-(10)-10-10---10-10-10---|
 |--0----0-----0--0--0--0-|--(0)--0--0----0--0--0---|
 |--0----0-----0--0--0--0-|--(0)--0--0----0--0--0---|

|
| E E E E E E E E E E E E E E E E
 
 |------------------------|-------------------------|
 |------------------------|-------------------------|
 |------------------------|-------------------------|
 |--0-0--0--0--0--0--0--0-|---0---0--0-0--0--0--0-0-|

[E] [E] [E] [E] [E] [E] [E] [a] [E] [+E] [E] [E] [E] [E] [E] [E] [E]  
 
 |---------------------------|--------------------------|
 |---------------------------|--------------------------|
 |--x-14-12-10-10--9--9-9s10-|-(10)-10-10-10s=9--7s=5-5-|
 |---------------------------|--------------------------|
 |--x-12-10s=8--8s=7--7-7s=8-|--(8)--8--8--8s=7--5s=3-3-|
 |---------------------------|--------------------------|

|
| Q Q E E E E +E E Q E E Q
 
 |---------------------------|--------------------------|
 |---------------------------|--------------------------|
 |---------------------------|--------------------------|
 |-10----10----10-10-10---10-|-(10)-10-10----10-10-10---|
 |--7-----7-----7--7--7----7-|--(7)--7--7-----7--7--7---|
 |--7-----7-----7--7--7----7-|--(7)--7--7-----7--7--7---|

|
| E E E E E E E E E E E E E E E E
 
 |---------------------------|--------------------------|
 |---------------------------|--------------------------|
 |---------------------------|--------------------------|
 |--7--7--7--7--7--7--7-7----|---7---7--7--7--7--7--7-7-|

Q Q E E E E +E E E Q E E E
 
 |-----------------------|---------------------------|
 |-----------------------|---------------------------|
 |--7----7----7--7--7--9-|--(9)--9--9-10----10-10-10-|
 |-----------------------|---------------------------|
 |--5----5----5--5--5--7-|--(7)--7--7--8-----8--8--8-|
 |-----------------------|---------------------------|

|
| Q Q E E E E +E E Q E E Q
 
 |-----------------------|---------------------------|
 |-----------------------|---------------------------|
 |-----------------------|---------------------------|
 |-10---10---10-10-10-10-|-(10)-10-10----10-10-10----|
 |--8----8----8--8--8--8-|--(8)--8--8-----8--8--8----|
 |--8----8----8--8--8--8-|--(8)--8--8-----8--8--8----|

|
| E E E E E E E E E E E E E E E E
 
 |-----------------------|---------------------------|
 |-----------------------|---------------------------|
 |-----------------------|---------------------------|
 |--8-8--8-8--8--8--8--8-|---8---8--8--8--8--8--8--8-|

Q Q E E E E +E E E Q E Q
 
 |-----------------------|--------------------------|
 |-----------------------|--------------------------|
 |--9----9----9--9--9--9-|--(9)--9--9-9-----9--9s===|
 |-----------------------|--------------------------|
 |--7----7----7--7--7--7-|--(7)--7--7-7-----7--7s===|
 |-----------------------|--------------------------|

|
| Q Q E E E E +E E Q E E Q
 
 |-----------------------|--------------------------|
 |-----------------------|--------------------------|
 |-----------------------|--------------------------|
 |-10---10---10-10-10-10-|-(10)-10-10---10-10-10----|
 |-10---10---10-10-10-10-|-(10)-10-10---10-10-10----|
 |-10---10---10-10-10-10-|-(10)-10-10---10-10-10----|

|
| E E E E E E E E E E E E E E E E
 
 |-----------------------|--------------------------|
 |-----------------------|--------------------------|
 |--3-3--3-3--3--3--3--3-|---3---3--3-3--3--3--3-3--|
 |-----------------------|--------------------------|

Q E Q E E E +E E E Q E E E
 
 |----------------------|--------------------------|
 |----------------------|--------------------------|
 |-14---14-14S==12-x-10-|-(10)-10-10-10---10-10-10-|
 |----------------------|--------------------------|
 |-12---12-12S==10-x--8-|--(8)--8--8--8----8--8--8-|
 |----------------------|--------------------------|

|
| Q Q E E E E +E E Q E E Q
 
 |----------------------|--------------------------|
 |----------------------|--------------------------|
 |--7----7----7--7-7--3-|--(3)--3--3----3--3--3----|
 |--7----7----7--7-7--3-|--(3)--3--3----3--3--3----|
 |--5----5----5--5-5--1-|--(1)--1--1----1--1--1----|
 |----------------------|--------------------------|

|
| E E E E E E E E E E E E E E E E
 
 |----------------------|--------------------------|
 |----------------------|--------------------------|
 |--5-5--5--5-5--5-5--1-|---1---1--1--1-1--1--1--1-|
 |----------------------|--------------------------|

Q Q E E E E +E E Q E E E E
 
 |-----------------|--------------------|
 |-----------------|--------------------|
 |-9---9---9-9-9-9-|-(9)-9-9---9-9-9-9--|
 |-----------------|--------------------|
 |-7---7---7-7-7-7-|-(7)-7-7---7-7-7-7--|
 |-----------------|--------------------|

|
| Q Q E E E E +E E Q E E Q
 
 |-----------------|--------------------|
 |-----------------|--------------------|
 |-5---5---5-5-5-5-|-(5)-5-5---5-5-5----|
 |-5---5---5-5-5-5-|-(5)-5-5---5-5-5----|
 |-3---3---3-3-3-3-|-(3)-3-3---3-3-3----|
 |-----------------|--------------------|

|
| E E E E E E E E E E E E E E E E
 
 |-----------------|--------------------|
 |-----------------|--------------------|
 |-3-3-3-3-3-3-3-3-|--3--3-3-3-3-3-3-3--|
 |-----------------|--------------------|

Q E E E E E E +E E E E E E Q
 
 |----------------------|--------------------|
 |----------------------|--------------------|
 |-/10---10-10-10S9-x-7-|-(7)-7-7-7-7-7S10---|
 |----------------------|--------------------|
 |--/8----8--8--8S7-x-5-|-(5)-5-5-5-5-5S=8---|
 |----------------------|--------------------|

|
| Q Q E E E E +E E Q E E Q
 
 |----------------------|--------------------|
 |----------------------|--------------------|
 |---7----7-----7-7-7-3-|-(3)-3-3---3-3--3---|
 |---7----7-----7-7-7-3-|-(3)-3-3---3-3--3---|
 |---5----5-----5-5-5-1-|-(1)-1-1---1-1--1---|
 |----------------------|--------------------|

|
| E E E E E E E E E E E E E E E E
 
 |----------------------|--------------------|
 |----------------------|--------------------|
 |---5-5--5--5--5-5-5---|--------------------|
 |--------------------1-|--1--1-1-1-1-1--1-1-|

Q Q E E E E +E E Q a Q a Q
 
 |-----------------|---------------------|
 |-----------------|---------------------|
 |-9---9---9-9-9-9-|-(9)-4s==5---5s7-7s9-|
 |-----------------|---------------------|
 |-7---7---7-7-7-7-|-(7)-2s==3---3s5-5s7-|
 |-----------------|---------------------|

|
| Q Q E E E E +E E Q E E Q
 
 |-----------------|---------------------|
 |-----------------|---------------------|
 |-2---2---2-2-2-2-|-(2)---2-2---2-2-2---|
 |-2---2---2-2-2-2-|-(2)---2-2---2-2-2---|
 |-0---0---0-0-0-0-|-(0)---0-0---0-0-0---|
 |-----------------|---------------------|

|
| E E E E E E E E E E E E E E E E
 
 |-----------------|---------------------|
 |-----------------|---------------------|
 |-0-0-0-0-0-0-0-0-|--0--0-0-0-0-0-0-0---|
 |-----------------|---------------------|

Q Q E E E E +E E E Q E E E
 
 |-----------------------|--------------------------|
 |-----------------------|--------------------------|
 |-10---10---10-10-10-12-|-(12)-12-12-12---12-12-12-|
 |-----------------------|--------------------------|
 |--8----8----8--8--8-10-|-(10)-10-10-10---10-10-10-|
 |-----------------------|--------------------------|

|
| Q Q E E E E +E E Q E E Q
 
 |-----------------------|--------------------------|
 |-----------------------|--------------------------|
 |--7----7----7--7--7--5-|--(5)--5--5----5--5--5----|
 |--7----7----7--7--7--5-|--(5)--5--5----5--5--5----|
 |--5----5----5--5--5--3-|--(3)--3--3----3--3--3----|
 |-----------------------|--------------------------|

|
| E E E E E E E E E E E E E E E E
 
 |-----------------------|--------------------------|
 |-----------------------|--------------------------|
 |--5-5--5-5--5--5--5--3-|---3---3--3--3-3--3--3--3-|
 |-----------------------|--------------------------|

Q Q E E E E +E E E Q E Q
 
 |-----------------------|--------------------------|
 |-----------------------|--------------------------|
 |-10---10---10-10-10-10-|-(10)-10-10-10---10-10----|
 |-----------------------|--------------------------|
 |--8----8----8--8--8--8-|--(8)--8--8--8----8--8----|
 |-----------------------|--------------------------|

|
| Q Q E E E E +E E Q E E Q
 
 |-----------------------|--------------------------|
 |-----------------------|--------------------------|
 |--3----3----3--3--3--3-|--(3)--3--3----3--3--3----|
 |--3----3----3--3--3--3-|--(3)--3--3----3--3--3----|
 |--1----1----1--1--1--1-|--(1)--1--1----1--1--1----|
 |-----------------------|--------------------------|

|
| E E E E E E E E E E E E E E E E
 
 |-----------------------|--------------------------|
 |-----------------------|--------------------------|
 |--1-1--1-1--1--1--1--1-|---1---1--1--1-1--1--1-1--|
 |-----------------------|--------------------------|

Q=180
Q Q E E E E +E E Q E E Q H H
 
 |-----------------|------------------|------------------|
 |-----------------|------------------|------------------|
 |-6---6---6-6-6-6-|-(6)-6-6---6-6-6--|-7s========x------|
 |-----------------|------------------|------------------|
 |-4---4---4-4-4-4-|-(4)-4-4---4-4-4--|-5s========x------|
 |-----------------|------------------|------------------|

|
| Q Q E E E E +E E Q E E Q H a
 
 |-1---1---1-1-1-1-|-(1)-1-1---1-1-1--|------------------|
 |-2---2---2-2-2-2-|-(2)-2-2---2-2-2--|------------------|
 |-3---3---3-3-3-3-|-(3)-3-3---3-3-3--|------------------|
 |-3---3---3-3-3-3-|-(3)-3-3---3-3-3--|-8s======0--------|
 |-1---1---1-1-1-1-|-(1)-1-1---1-1-1--|-8s======0--------|
 |-----------------|------------------|-8s======0--------|

|
| Gtr V Gtr III
| E E E E E E E E E E E E E E Q E E E E E E E E
 
 |-----------------|------------------|------------------|
 |-----------------|------------------|------------------|
 |-----------------|------------------|------------------|
 |-----------------|------------------|-----3-----3---2--|
 |-1-1-1-1-1-1-1-1-|--1--1-1-1-1-1-1--|-5-5-5-5-5-5-3-3--|
 |-----------------|------------------|------------------|

Gtr III
[E] [E] [E] [E] [E] [E] [E] [E] [E] [E] [E] [E] [E] [E] [E] [E] [E] [E] [E] [E] [E] [E] [E] [E] [E] [E] [E] [E] [E] [E] [E] [E]  
 
 |-----------------|-----------------|-----------------|------------------|
 |-----------------|-----------------|-----------------|------------------|
 |-----------------|-----------------|-----------------|------------------|
 |-----2-------2---|-----3-----3-----|-----------------|-----3-----3---2--|
 |-3-3-3-3-3-3-3-3-|-1-1-1-1-1-1---3-|-----3-------3---|-5-5-5-5-5-5-3-3--|
 |-----------------|-------------3-3-|-3-3-3-3-3-3-3-3-|------------------|

[E] [E] [E] [E] [E] [E] [E] [E] [E] [E] [E] [E] [E] [E] [E] [E] [E] [E] [E] [E] [E] [E] [E] [E] [E] [E] [E] [E] [E] [E] [E] [E]  
 
 |-----------------|-----------------|-----------------|------------------|
 |-----------------|-----------------|-----------------|------------------|
 |-----------------|-----------------|-----------------|------------------|
 |-----2-------2---|-----0-----0---0-|-----0-------0---|-----3-----3---2--|
 |-3-3-3-3-3-3-3-2-|-2-2-2-2-2-2-2-1-|-1-1-1-1-1-1-1-1-|-5-5-5-5-5-5-3-3--|
 |-----------------|-----------------|-----------------|------------------|

[E] [E] [E] [E] [E] [E] [E] [E] [E] [E] [E] [E] [E] [E] [E] [E] [E] [E] [E] [E] [E] [E] [E] [E]  
 
 |-----------------|-----------------|-----------------|
 |-----------------|-----------------|-----------------|
 |-----------------|-----------------|-----------------|
 |-----2-------2---|-----3-----3-----|-----------------|
 |-3-3-3-3-3-3-3-3-|-1-1-1-1-1-1---3-|-----3-------3---|
 |-----------------|-------------3-3-|-3-3-3-3-3-3-3-3-|

Gtr I
W W E S S S S E S S S S E S S
 
 |----------|----------|-------------------------------|
 |----------|----------|-------------------------------|
 |-7--------|-9--------|-10---------10---------10------|
 |----------|----------|-------------------------------|
 |-5--------|-7--------|--8-8-8-8-8--8-8-8-8-8--8-8-8--|
 |----------|----------|-------------------------------|

|
| Gtr II
| W W E S S S S E S S S S E S S
 
 |----------|----------|-------------------------------|
 |----------|----------|-------------------------------|
 |-7--------|-5--------|--3----------3----------3------|
 |-7--------|-5--------|--3----------3----------3------|
 |-5--------|-3--------|--1-1-1-1-1--1-1-1-1-1--1-1-1--|
 |----------|----------|-------------------------------|

|
| Gtr IV
| W W E S S S S E S S S S E S S
 
 |----------|----------|-------------------------------|
 |----------|----------|-------------------------------|
 |-5--------|-3--------|--1-1-1-1-1--1-1-1-1-1--1-1-1--|
 |----------|----------|-------------------------------|

E H.. E E E E S S E E E
 
 |--------------|-------------------------|
 |--------------|-------7-----7-10--7-----|
 |-10-----------|----7-----7----------7---|
 |--------------|--9--------------------9-|
 |--8-----------|-------------------------|
 |--------------|-------------------------|

|
| E H.. Q E E E E E E
 
 |--------------|-------------------------|
 |--------------|-------------------------|
 |--3-----------|-11---11-11-11-11-11-9---|
 |--3-----------|--9----9--9--9--9--9-7---|
 |--1-----------|--9----9--9--9--9--9-7---|
 |--------------|--9----9--9--9--9--9-7---|

|
| E H.. E E E E E E E E
 
 |--------------|-------------------------|
 |--------------|-------------------------|
 |--1-----------|-------------------------|
 |--------------|--9-9--9--9--9--9--9-7---|

E E E E S S E E E E E E E S S E E E
 
 |---------------------|--------------------|
 |-------5---5-7-5-----|-----7---7-10-7-----|
 |-----6---6-------6---|---7---7--------7---|
 |--7----------------7-|-9----------------9-|
 |---------------------|--------------------|
 |---------------------|--------------------|

|
| +E E Q E E E E Q E E E E E E
 
 |---------------------|--------------------|
 |---------------------|--------------------|
 |-(9)---9-9-9-9-9-9---|-7---7-7-7--7-7-7---|
 |-(7)---7-7-7-7-7-7---|-5---5-5-5--5-5-7---|
 |-(7)---7-7-7-7-7-7---|-5---5-5-5--5-5-5---|
 |-(7)---7-7-7-7-7-7---|-5---5-5-5--5-5-0---|

|
| E E E E E E E E E E E E E E E E
 
 |---------------------|--------------------|
 |---------------------|--------------------|
 |---------------------|--------------------|
 |--7--7-7-7-7-7-7-7---|-5-5-5-5-5--5-5-0---|

E E E E S S E E E E E E E S S E E E
 
 |----------------------|--------------------------|
 |-------7---7-10-7-----|-------7-----7-10--7------|
 |-----7---7--------7---|----7-----7-----------7---|
 |--7-----------------7-|--9---------------------9-|
 |----------------------|--------------------------|
 |----------------------|--------------------------|

|
| +E E Q E E E E Q E E E E E E
 
 |----------------------|--------------------------|
 |----------------------|--------------------------|
 |-(7)-7-7---7----7-7-7-|-11---11-11-11----11-11-9-|
 |-(7)-7-7---7----7-7-7-|--9----9--9--9-----9--9-7-|
 |-(5)-5-5---5----5-5-5-|--9----9--9--9-----9--9-7-|
 |-(0)-0-0---0----0-0-0-|--9----9--9--9-----9--9-7-|

|
| E E E E E E E E E E E E E E E E
 
 |----------------------|--------------------------|
 |----------------------|--------------------------|
 |----------------------|--------------------------|
 |--0--0-0-0-0--0-0-0---|--9-9--9--9--9--9--9--7---|

E E E E S S E E E E E E E S S E E E
 
 |---------------------|-------------------|
 |-------5---5-7-5-----|-----5---5-7-5-----|
 |-----6---6-------6---|---5---5-------5---|
 |--7----------------7-|-6---------------6-|
 |---------------------|-------------------|
 |---------------------|-------------------|

|
| +E E Q E E E E Q E E E E E E
 
 |---------------------|-------------------|
 |---------------------|-------------------|
 |-(9)-9-9---9---9-9-9-|-9---9-9-9---9-9-7-|
 |-(7)-7-7---7---7-7-7-|-6---6-6-6---6-6-5-|
 |-(7)-7-7---7---7-7-7-|-7---7-7-7---7-7-5-|
 |-(7)-7-7---7---7-7-7-|-6---6-6-6---6-6-5-|

|
| E E E E E E E E E E E E E E E E
 
 |---------------------|-------------------|
 |---------------------|-------------------|
 |---------------------|-------------------|
 |--7--7-7-7-7-7-7-7---|-6-6-6-6-6-6-6-5---|

E E E E E E E E E E E E S S E E E
 
 |-------------------|--------------------------|
 |-------5---7-5-----|-------7-----7-10--7------|
 |-----5---5-----5---|----7-----7-----------7---|
 |--5--------------5-|--9---------------------9-|
 |-------------------|--------------------------|
 |-------------------|--------------------------|

|
| +E E Q E E E E Q E E E E E E
 
 |-------------------|--------------------------|
 |-------------------|--------------------------|
 |-(7)-7-7---7-7-7-7-|-11---11-11-11----11-11-9-|
 |-(5)-5-5---5-5-5-5-|--9----9--9--9-----9--9-7-|
 |-(5)-5-5---5-5-5-5-|--9----9--9--9-----9--9-7-|
 |-(5)-5-5---5-5-5-5-|--9----9--9--9-----9--9-7-|

|
| E E E E E E E E E E E E E E E E
 
 |-------------------|--------------------------|
 |-------------------|--------------------------|
 |-------------------|--------------------------|
 |--5--5-5-5-5-5-5-5-|--9-9--9--9--9-----9--9-7-|

E E E E S S E E E E E E E S S E E E
 
 |---------------------|---------------------|
 |-------5---5-7-5-----|-----7---7-10-7------|
 |-----6---6-------6---|---7---7--------7----|
 |--7----------------7-|-9----------------9--|
 |---------------------|---------------------|
 |---------------------|---------------------|

|
| +E E Q E E E E Q E E E E E E
 
 |---------------------|---------------------|
 |---------------------|---------------------|
 |-(9)-9-9---9---9-9-9-|-7---7-7-7----7-7-7--|
 |-(7)-7-7---7---7-7-7-|-5---5-5-5----5-5-7--|
 |-(7)-7-7---7---7-7-7-|-5---5-5-5----5-5-5--|
 |-(7)-7-7---7---7-7-7-|-5---5-5-5----5-5-0--|

|
| E E E E E E E E E E E E E E E E
 
 |---------------------|---------------------|
 |---------------------|---------------------|
 |---------------------|---------------------|
 |--7--7-7-7-7---7-7-7-|-5-5-5-5-5----5-5-0--|

E E E E S S E E E E E E E S S E E E
 
 |----------------------|--------------------------|
 |-------7---7-10-7-----|-------7-----7-10--7------|
 |-----7---7--------7---|----7-----7-----------7---|
 |--7-----------------7-|--9---------------------9-|
 |----------------------|--------------------------|
 |----------------------|--------------------------|

|
| +E E Q E E E E Q E E E E E E
 
 |----------------------|--------------------------|
 |----------------------|--------------------------|
 |-(7)-7-7---7----7-7-7-|-11---11-11-11----11-11-9-|
 |-(7)-7-7---7----7-7-7-|--9----9--9--9-----9--9-7-|
 |-(5)-5-5---5----5-5-5-|--9----9--9--9-----9--9-7-|
 |-(0)-0-0---0----0-0-0-|--9----9--9--9-----9--9-7-|

|
| E E E E E E E E E E E E E E E E
 
 |----------------------|--------------------------|
 |----------------------|--------------------------|
 |----------------------|--------------------------|
 |--0--0-0-0-0----0-0-0-|--9-9--9--9--9-----9--9-9-|

E E E E S S E E E E E E E E E E E
 
 |---------------------|-------------------|
 |-------5---5-7-5-----|-----7---10-7------|
 |-----6---6-------6---|---7---7--------7--|
 |--7----------------7-|-9------------9----|
 |---------------------|-------------------|
 |---------------------|-------------------|

|
| +E E Q E E E E Q E Q E Q
 
 |---------------------|-------------------|
 |---------------------|-------------------|
 |-(9)-9-9---9---9-9-9-|-7---7-7----7-7----|
 |-(7)-7-7---7---7-7-7-|-5---5-5----5-5----|
 |-(7)-7-7---7---7-7-7-|-5---5-5----5-5----|
 |-(7)-7-7---7---7-7-7-|-5---5-5----5-5----|

|
| E E E E E E E E Q E Q E Q
 
 |---------------------|-------------------|
 |---------------------|-------------------|
 |---------------------|-------------------|
 |--7--7-7-7-7---7-7-7-|-5---5-5----5-5----|

E E E E E E E E E E E E S S E E E
 
 |--------------------|---------------------------|
 |-------7---10-7-----|-------7-----7-10--7-------|
 |-----7---7--------7-|----7-----7-----------7----|
 |--9-------------9---|--9----------------------9-|
 |--------------------|---------------------------|
 |--------------------|---------------------------|

|
| +E E Q E E E E Q E E E E E E
 
 |--------------------|---------------------------|
 |--------------------|---------------------------|
 |-(7)-7-7----7-7-7-7-|-11---11-11-11----11-11-11-|
 |-(5)-5-5----5-5-5-5-|--9----9--9--9-----9--9--7-|
 |-(5)-5-5----5-5-5-5-|--9----9--9--9-----9--9--7-|
 |-(5)-5-5----5-5-5-5-|--9----9--9--9-----9--9--7-|

|
| +E E Q E E E E E E E E E E E E
 
 |--------------------|---------------------------|
 |--------------------|---------------------------|
 |--------------------|---------------------------|
 |-(5)-5-5----5-5-5-5-|--9-9--9--9--9--

Important: The song above is NOT stored on the Chordie server. The original song is hosted at www.guitaretab.com. Chordie works as a search engine and provides on-the-fly formatting. Chordie does not index songs against artists'/composers' will. To remove this song please click here.

Text color:
Chord color:
Chord grids: 
Font size:    
Page size: 

E
Rate #1 of 1 versions

Login - add to songbook

SHARE PAGE  




You need to log in to post comments