Guitar Tabs, Chords and Lyrics
Major upgrade!! After one year development the new version of Chordie is now online! Please give feedback.


Atlantic  Thrice

Tuning: Standard (EADGBe)
Intro:
 
 e|----8-7-----------8-7--------|----8-7-----------8-7--------|
 B|--------8-7-10--------8-7----|--------8-7-10--------8-7----|
 G|-9~-------------9~--------9--|-9~-------------9~--------9--|
 D|-----------------------------|-----------------------------|
 A|-----------------------------|-----------------------------|
 E|-----------------------------|-----------------------------|
 e|-----8-7------------8-7--------|-----8-7------------8-7--------|
 B|---------8-7-10---------8-7----|---------8-7-10---------8-7----|
 G|----------------------------9--|----------------------------9--|
 D|-10~------------10~------------|-10~------------10~------------|
 A|-------------------------------|-------------------------------|
 E|-------------------------------|-------------------------------|

Repeat Intro through the entire song except for during the chorus.
[Em]  
[Em]It's been so long,
And tin cans and [Am]string for years[C]
Is all that we've [Em]known
Could it be you're [Am]really here[C]
Chorus:
'Cause my eyes are [Am]o---[C]pen
And [Em]everything still [G]moves in slow [Am]mo---[C]tion
[Em]Breathless and [G]blue and be[Am]hind your [C]eyes
The [Em]sea
[G]Oceans of [Am]light env[C]elop [Em]me
[Em]  
[Em]But things can't be [Am]as they seem[C]
I'm so far from [Em]home
This must be an[Am]other dream[C]
Chorus:
'Cause my eyes are [Am]o---[C]pen
And [Em]everything still [G]moves in slow [Am]mo---[C]tion
[Em]Breathless and [G]blue and be[Am]hind your [C]eyes
The [Em]sea
[G]Oceans of [Am]light env[C]elop [Em]me
Em, Em, Am, C (Same as verse)
'Cause my eyes are [Am]o---[C]pen
And [Em]everything still [G]moves in slow [Am]mo---[C]tion
[Em]Breathless and [G]blue and be[Am]hind your [C]eyes
The [Em]sea
[G]Oceans of [Am]light env[C]elop [Em]me
Continues playing Em for a bit.

Important: The song above is NOT stored on the Chordie server. The original song is hosted at www.guitaretab.com. Chordie works as a search engine and provides on-the-fly formatting. Chordie does not index songs against artists'/composers' will. To remove this song please click here.

Text color:
Chord color:
Chord grids: 
Font size:    
Page size: 

Am C Em G
Rate #1 of 4 versions

Jango Player

Login - add to songbook

SHARE PAGE  



You need to log in to post comments