Guitar Tabs, Chords and Lyrics
Server problems seems to be fixed. Chordie has been experiencing problems with songs disappearing. These issues now seems to be fixed, but still verifying the fix. If you find anything strange, please email admin@chordie.com.


Call It in the Air   Thrice

 
 -------------------------

 


 


 Tuning = Drop C (CGCFAD)


 


 Legend:


 ~ = Hold


 \ = Slide Forward


 / = Slide Backward


 b = Full Step Bend


 PM = Palm Mute


 


 (Intro)


 

 
 --------

 


 


 Teppei (Clean w/Chorus effect) - Play 4x


 

 
 |-------0-----------0-----------0-----------0------|
 |-3-------3---1-------1---0-------0---0-------0----|
 |---0-------0---0-------0---0-------0---0-------0--|
 |-----0-----------0-----------0-----------0--------|
 |--------------------------------------------------|
 |--------------------------------------------------|

 


 


 (Verse 1)


 

 
 ---------

 


 


 Teppei (Clean w/Chorus effect) - Play 3x


 

 
 |-------0-----------0-----------0-----------0------|
 |-3-------3---1-------1---0-------0---0-------0----|
 |---0-------0---0-------0---0-------0---0-------0--|
 |-----0-----------0-----------0-----------0--------|
 |--------------------------------------------------|
 |--------------------------------------------------|

 


 


 Dustin (Distortion) - Play 3x


 

 
 |--------------------------------------------------|
 |--------------------------------------------------|
 |--------------------------------------------------|
 |-9-9-9-9-9-9-9-9-9-9-9-9-9-9-9-9-9-9-9-9-9-9-9-9--|
 |-7-7-7-7-7-7-7-7-7-7-7-7-7-7-7-7-7-7-7-7-7-7-7-7--|
 |--------------------------------------------------|

 


 P P P P P P P P P P P P P P P P P P P P P P P P


 [M] [M] [M] [M] [M] [M] [M] [M] [M] [M] [M] [M] [M] [M] [M] [M] [M] [M] [M] [M] [M] [M] [M] [M] 


 A coin tossed,


 Into the air,


 Will come down,


 


 Teppei (Clean w/Chorus effect) - Play 1x


 

 
 |-------0-----------0-----------0-----------0------|
 |-3-------3---1-------1---0-------0---0-------0----|
 |---0-------0---0-------0---0-------0---0-------0--|
 |-----0-----------0-----------0-----------0--------|
 |--------------------------------------------------|
 |--------------------------------------------------|

 


 


 Dustin (Distortion) - Play 1x


 

 
 |--------------------------------------------------|
 |--------------------------------------------------|
 |--------------------------------------------------|
 |-9-9-9-9-9----7~----------2~----------------------|
 |-7-7-7-7-7----7~----------2~----------------------|
 |--------------7~----------2~----------------------|

 


 P P P P P


 [M] [M] [M] [M] [M]  


 It will come down some---where.


 


 Teppei (Clean w/Chorus effect) - Play 3x


 

 
 |-------0-----------0-----------0-----------0------|
 |-3-------3---1-------1---0-------0---0-------0----|
 |---0-------0---0-------0---0-------0---0-------0--|
 |-----0-----------0-----------0-----------0--------|
 |--------------------------------------------------|
 |--------------------------------------------------|

 


 


 Dustin (Distortion) - Play 3x


 

 
 |--------------------------------------------------|
 |--------------------------------------------------|
 |--------------------------------------------------|
 |-9-9-9-9-9-9-9-9-9-9-9-9-9-9-9-9-9-9-9-9-9-9-9-9--|
 |-7-7-7-7-7-7-7-7-7-7-7-7-7-7-7-7-7-7-7-7-7-7-7-7--|
 |--------------------------------------------------|

 


 P P P P P P P P P P P P P P P P P P P P P P P P


 [M] [M] [M] [M] [M] [M] [M] [M] [M] [M] [M] [M] [M] [M] [M] [M] [M] [M] [M] [M] [M] [M] [M] [M] 


 And your life,


 Is a coin in the air,


 It will come down,


 


 Teppei (Clean w/Chorus effect) - Play 1x


 

 
 |-------0-----------0-----------0-----------0------|
 |-3-------3---1-------1---0-------0---0-------0----|
 |---0-------0---0-------0---0-------0---0-------0--|
 |-----0-----------0-----------0-----------0--------|
 |--------------------------------------------------|
 |--------------------------------------------------|

 


 


 Dustin (Distortion) - Play 1x


 

 
 |--------------------------------------------------|
 |--------------------------------------------------|
 |--------------------------------------------------|
 |-9-9-9-9-9----7~----------2~----------------------|
 |-7-7-7-7-7----7~----------2~----------------------|
 |--------------7~----------2~----------------------|

 


 P P P P P


 [M] [M] [M] [M] [M]  


 It will come down some---where.


 


 (Pre-Chorus)


 

 
 ------------

 


 


 Teppei (Clean w/Chorus effect) - Play 4x


 

 
 |-------0-----------0-----------0-----------0------|
 |-3-------3---1-------1---0-------0---0-------0----|
 |---0-------0---0-------0---0-------0---0-------0--|
 |-----0-----------0-----------0-----------0--------|
 |--------------------------------------------------|
 |--------------------------------------------------|

 


 


 Dustin (Distortion) - Play 2x


 

 
 |----------------------------------------------------------------------------------------|
 |----------------------------------------------------------------------------------------|
 |----------------------------------------------------------------------------------------|
 |-7-7-7-7-7-7-7-7-7-7-7-7-5-5-5-5-5-5-5-5-5-5-5-5-10-10-10-10-10-10-10-10-10-10-10-10-10-|
 |-7-7-7-7-7-7-7-7-7-7-7-7-5-5-5-5-5-5-5-5-5-5-5-5-10-10-10-10-10-10-10-10-10-10-10-10-10-|
 |-7-7-7-7-7-7-7-7-7-7-7-7-5-5-5-5-5-5-5-5-5-5-5-5-10-10-10-10-10-10-10-10-10-10-10-10-10-|

 


 


 Every coin does ring, Every coin will fall


 

 
 Stop your wa-----ver----ring, Now`s the time so call it out.

 


 


 (Verse 2)


 

 
 ---------

 


 


 Teppei (Clean w/Chorus effect) - Play 3x


 

 
 |-------0-----------0-----------0-----------0------|
 |-3-------3---1-------1---0-------0---0-------0----|
 |---0-------0---0-------0---0-------0---0-------0--|
 |-----0-----------0-----------0-----------0--------|
 |--------------------------------------------------|
 |--------------------------------------------------|

 


 


 Dustin (Distortion) - Play 3x


 

 
 |--------------------------------------------------|
 |--------------------------------------------------|
 |--------------------------------------------------|
 |-9-9-9-9-9-9-9-9-9-9-9-9-9-9-9-9-9-9-9-9-9-9-9-9--|
 |-7-7-7-7-7-7-7-7-7-7-7-7-7-7-7-7-7-7-7-7-7-7-7-7--|
 |--------------------------------------------------|

 


 P P P P P P P P P P P P P P P P P P P P P P P P


 [M] [M] [M] [M] [M] [M] [M] [M] [M] [M] [M] [M] [M] [M] [M] [M] [M] [M] [M] [M] [M] [M] [M] [M] 


 A coin in the air


 It will come down


 


 Teppei (Clean w/Chorus effect) - Play 1x


 

 
 |-------0-----------0-----------0-----------0------|
 |-3-------3---1-------1---0-------0---0-------0----|
 |---0-------0---0-------0---0-------0---0-------0--|
 |-----0-----------0-----------0-----------0--------|
 |--------------------------------------------------|
 |--------------------------------------------------|

 


 


 Dustin (Distortion) - Play 1x


 

 
 |--------------------------------------------------|
 |--------------------------------------------------|
 |--------------------------------------------------|
 |-9-9-9-9-9---7~----------2~-----------------------|
 |-7-7-7-7-7---7~----------2~-----------------------|
 |-------------7~----------2~-----------------------|

 


 P P P P P


 [M] [M] [M] [M] [M]  


 It will come down some--where.


 


 (Pre-Chorus)


 

 
 ------------

 


 


 Teppei (Clean w/Chorus effect) - Play 4x


 

 
 |-------0-----------0-----------0-----------0------|
 |-3-------3---1-------1---0-------0---0-------0----|
 |---0-------0---0-------0---0-------0---0-------0--|
 |-----0-----------0-----------0-----------0--------|
 |--------------------------------------------------|
 |--------------------------------------------------|

 


 


 Dustin (Distortion) - Play 2x


 

 
 |----------------------------------------------------------------------------------------|
 |----------------------------------------------------------------------------------------|
 |----------------------------------------------------------------------------------------|
 |-7-7-7-7-7-7-7-7-7-7-7-7-5-5-5-5-5-5-5-5-5-5-5-5-10-10-10-10-10-10-10-10-10-10-10-10-10-|
 |-7-7-7-7-7-7-7-7-7-7-7-7-5-5-5-5-5-5-5-5-5-5-5-5-10-10-10-10-10-10-10-10-10-10-10-10-10-|
 |-7-7-7-7-7-7-7-7-7-7-7-7-5-5-5-5-5-5-5-5-5-5-5-5-10-10-10-10-10-10-10-10-10-10-10-10-10-|

 


 


 Every coin does ring, Every coin will fall


 

 
 Stop your wa-----ver----ring, Now`s the time so call it

 


 


 (Chorus)


 

 
 --------

 


 


 Dustin and Teppei (Distortion w/Delay effect) - Play 1x


 

 
 |----------------------------------------------------------------------------------------|
 |-------------------------------------------b12--b12--b12--b12-----b10--b10--b10--b10----|
 |--b9--b9--b9--b9-----b12--b12--b12--b12-------------------------------------------------|
 |----------------------------------------------------------------------------------------|
 |----------------------------------------------------------------------------------------|
 |----------------------------------------------------------------------------------------|

 


 


 in the air.


 


 

 
 |----------------------b10--b10--b10--b10------------------------------------------------|
 |-b12--b12--b12--b12------------------------------------------------------10-------------|
 |-------------------------------------------------10-----------12--------------------12--|
 |----------------------------------------------------------------------------------------|
 |----------------------------------------------------------------------------------------|
 |----------------------------------------------------------------------------------------|

 


 


 You have to choose, and what you stand to lose, you've been putting up all of your life


 


 Dustin and Teppei (Distortion w/Delay effect) - Play 1x


 

 
 |----------------------------------------------------------------------------------------|
 |-------------------------------------------b12--b12--b12--b12-----b10--b10--b10--b10----|
 |--b9--b9--b9--b9-----b12--b12--b12--b12-------------------------------------------------|
 |----------------------------------------------------------------------------------------|
 |----------------------------------------------------------------------------------------|
 |----------------------------------------------------------------------------------------|

 


 


 Call it in my hand.


 


 

 
 |----------------------b10--b10--b10--b10------------------------------------------------|
 |-b12--b12--b12--b12------------------------------------------------------10-------------|
 |-------------------------------------------------10-----------12--------------------12--|
 |----------------------------------------------------------------------------------------|
 |----------------------------------------------------------------------------------------|
 |----------------------------------------------------------------------------------------|

 


 


 Only one way to see what the outcome will be. Call it out before we lose the light.


 


 (Interlude)


 

 
 ------------

 


 


 Dustin and Teppei (Distortion) - Play 2x


 

 
 |-------------------------------------------------------------------------------------------|
 |-------------------------------------------------------------------------------------------|
 |-------------------------------------------------------------------------------------------|
 |-2-2-2-2-2-2-2-2-2-2-2-2-2-2-2-2-5-5-5-5-0-1-1-1-1-1-1-1-1-1-1-1--/10-10-10-10-0-3-3-3-3-0-|
 |-2-2-2-2-2-2-2-2-2-2-2-2-2-2-2-2-5-5-5-5-0-1-1-1-1-1-1-1-1-1-1-1--/10-10-10-10-0-3-3-3-3-0-|
 |-2-2-2-2-2-2-2-2-2-2-2-2-2-2-2-2-5-5-5-5-0-1-1-1-1-1-1-1-1-1-1-1--/10-10-10-10-0-3-3-3-3-0-|

 


 


 


 Teppei (Clean w/Chorus Effect)- Play 2x


 

 
 |-------------------------------------------------------------------------------------------|
 |---------------------------------3~--------------------------------------------------------|
 |-4~------------------------------2~--------3-----------------------------------3/5-5-5-5-5-|
 |-2~------------------------------0~--------1~----------------------------------1/3-3-3-3-3-|
 |-2~------------------------------0~--------1~----------------------------------1/3-3-3-3-3-|
 |-2~------------------------------2~--------1~----------------------------------1/3-3-3-3-3-|

 


 


 Dustin (Distortion) - Play 2x


 

 
 |-------------------------------------------------------------------------------------------|
 |-------------------------------------------------------------------------------------------|
 |-------------------------------------------------------------------------------------------|
 |-2~-----------------------------\5~-------/1~---------------------------------/10~---------|
 |-2~-----------------------------\5~-------/1~---------------------------------/10~---------|
 |-2~-----------------------------\5~-------/1~---------------------------------/10~---------|

 


 


 


 Teppei (Clean w/Chorus Effect)- Play 2x


 

 
 |------------0------------------------------------------------------------------------------|
 |-------3---------3--------3----------3----------3-----------3----------3-------------------|
 |-----------------------------0----------0----------3-----------3----------3----3/5-5-5-5-5-|
 |------------------------------------------------------1-----------1------------1/3-3-3-3-3-|
 |-2-------------------2-----------5---------1-----------------------------------1/3-3-3-3-3-|
 |-2-------------------2-----------5---------1-----------------------------------------------|
 No more stalling, no de--------lay

 


 You must call it out by light of day.


 


 (Pre-Chorus)


 

 
 ------------

 


 


 Teppei (Clean w/Chorus effect) - Play 4x


 

 
 |-------0-----------0-----------0-----------0------|
 |-3-------3---1-------1---0-------0---0-------0----|
 |---0-------0---0-------0---0-------0---0-------0--|
 |-----0-----------0-----------0-----------0--------|
 |--------------------------------------------------|
 |--------------------------------------------------|

 


 


 Dustin (Distortion) - Play 2x


 

 
 |----------------------------------------------------------------------------------------|
 |----------------------------------------------------------------------------------------|
 |----------------------------------------------------------------------------------------|
 |-7-7-7-7-7-7-7-7-7-7-7-7-5-5-5-5-5-5-5-5-5-5-5-5-10-10-10-10-10-10-10-10-10-10-10-10-10-|
 |-7-7-7-7-7-7-7-7-7-7-7-7-5-5-5-5-5-5-5-5-5-5-5-5-10-10-10-10-10-10-10-10-10-10-10-10-10-|
 |-7-7-7-7-7-7-7-7-7-7-7-7-5-5-5-5-5-5-5-5-5-5-5-5-10-10-10-10-10-10-10-10-10-10-10-10-10-|

 


 


 Every coin does ring, Every coin will fall


 

 
 Stop your wa-----ver----ring, Now`s the time so call it

 


 


 (Chorus)


 

 
 --------

 


 


 Dustin and Teppei (Distortion w/Delay effect) - Play 1x


 

 
 |----------------------------------------------------------------------------------------|
 |-------------------------------------------b12--b12--b12--b12-----b10--b10--b10--b10----|
 |--b9--b9--b9--b9-----b12--b12--b12--b12-------------------------------------------------|
 |----------------------------------------------------------------------------------------|
 |----------------------------------------------------------------------------------------|
 |----------------------------------------------------------------------------------------|

 


 


 in the air.


 


 

 
 |----------------------b10--b10--b10--b10------------------------------------------------|
 |-b12--b12--b12--b12------------------------------------------------------10-------------|
 |-------------------------------------------------10-----------12--------------------12--|
 |----------------------------------------------------------------------------------------|
 |----------------------------------------------------------------------------------------|
 |----------------------------------------------------------------------------------------|

 


 


 You have to choose, and what you stand to lose, you've been putting up all of your life


 


 Dustin and Teppei (Distortion w/Delay effect) - Play 1x


 

 
 |----------------------------------------------------------------------------------------|
 |-------------------------------------------b12--b12--b12--b12-----b10--b10--b10--b10----|
 |--b9--b9--b9--b9-----b12--b12--b12--b12-------------------------------------------------|
 |----------------------------------------------------------------------------------------|
 |----------------------------------------------------------------------------------------|
 |----------------------------------------------------------------------------------------|

 


 


 Call it in my hand.


 


 

 
 |----------------------b10--b10--b10--b10------------------------------------------------|
 |-b12--b12--b12--b12------------------------------------------------------10-------------|
 |-------------------------------------------------10-----------12--------------------12--|
 |----------------------------------------------------------------------------------------|
 |----------------------------------------------------------------------------------------|
 |----------------------------------------------------------------------------------------|

 


 


 Only one way to see what the outcome will be. Call it out before we lose the light.


 


 Dustin and Teppei (Distortion) - Play 4x


 

 
 |-------------------------------------------------------------------------------------------|
 |------3-3-------3-3-------3-3-------------------3-3-------3-3------------------------------|
 |------2-2-------2-2-------2-2-------------------2-2-------2-2------------------------------|
 |-2-2-------2-2-------2-2---------5-5-5-5-0-1-1-------1-1----------/10-10-10-10-0-3-3-3-3-0-|
 |-2-2-------2-2-------2-2---------5-5-5-5-0-1-1-------1-1----------/10-10-10-10-0-3-3-3-3-0-|
 |-2-2-------2-2-------2-2---------5-5-5-5-0-1-1-------1-1----------/10-10-10-10-0-3-3-3-3-0-|

 


 


 So heads or tails? There's nothing for it so put an end to your sidestepping.


 Is it heads or tails? You can't ignore it; You stand to win or lose everything.


 

 
 Heads or ta-------ils-------| So put an end to your sidestepping.
 Heads or ta-------ils-------| You stand to win or lose everything.


Important: The song above is NOT stored on the Chordie server. The original song is hosted at www.guitaretab.com. Chordie works as a search engine and provides on-the-fly formatting. Chordie does not index songs against artists'/composers' will. To remove this song please click here.

This song is displayed as text-only. Transposing and tuning is only available for chordpro-songs.
Rate #1 of 2 versions

Login - add to songbook

SHARE PAGE  



You need to log in to post comments