Guitar Tabs, Chords and Lyrics
Server problems seems to be fixed. Chordie has been experiencing problems with songs disappearing. These issues now seems to be fixed, but still verifying the fix. If you find anything strange, please email admin@chordie.com.


Ultra Blue  Thrice

INTRO 1
E E E Q Q Q E E E E E E E E E E Q Q Q E E E E E E E
 
 e||---------------------------------|---------------------------------|
 B||-3-3-3-2---3-----------2-3-2-----|-3-3-3-2---3-----------2-3-2-----|
 G||-------------------2-4-------4-2-|-------------------2-4-------4-2-|
 D||---------------0-----------------|---------------------------------|
 A||---------------------------------|---------------2-----------------|
 E||---------------------------------|---------------------------------|

||
|| E E E E E E E E
 
 e||---------------------------------|---------------------------------|
 B||---------------------------------|---------------------------------|
 G||---------------------------------|---------------------------------|
 D||-12121212------------------------|-9-9-9-9-------------------------|
 A||-12121212------------------------|-9-9-9-9-------------------------|
 E||-10101010------------------------|-7-7-7-7-------------------------|

E E E Q Q Q E E E E E E E E E E Q Q Q E E E E E E E
 
 e||---------------------------------|---------------------------------|
 B||-3-3-3-2---3-----------2-3-2-----|-3-3-3-2---3-----------2-3-2-----|
 G||-------------------2-4-------4-2-|-------------------2-4-------4-2-|
 D||---------------0-----------------|---------------------------------|
 A||---------------------------------|---------------2-----------------|
 E||---------------------------------|---------------------------------|

||
|| E E E E E E E E+(H) + (H) + (H)
 
 e||---------------------------------|---------------------------------|
 B||---------------------------------|---------------------------------|
 G||---------------------------------|---------------------------------|
 D||-12121212------------------------|-9-9-9-9~~-----------------------|
 A||-12121212------------------------|-9-9-9-9~~-----------------------|
 E||-10101010------------------------|-7-7-7-7~~-----------------------|

INTRO 2
E E E Q Q Q E E E E E E E E E E Q Q Q E E E E E E E
 
 e||---------------------------------|---------------------------------|
 B||-3-3-3-2---3-----------2-3-2-----|-3-3-3-2---3-----------2-3-2-----|
 G||-------------------2-4-------4-2-|-------------------2-4-------4-2-|
 D||---------------0-----------------|---------------------------------|
 A||---------------------------------|---------------2-----------------|
 E||---------------------------------|---------------------------------|

||
|| E E E Q Q Q E E E E E E E E E E Q Q Q E E E E E E E
 
 e||-2-2-2-0---2---2-----0-2-3-2-0---|-2-2-2-0---2---2-----0-2-3-2-0---|
 B||-------------------3-----------3-|-------------------3-----------3-|
 G||---------------------------------|---------------------------------|
 D||---------------------------------|---------------------------------|
 A||---------------------------------|---------------------------------|
 E||---------------------------------|---------------------------------|

E E E Q Q Q E E E E E E E E E E Q Q Q E E E E E E E
 
 e||---------------------------------|---------------------------------|
 B||-3-3-3-2---3-----------2-3-2-----|-3-3-3-2---3-----------2-3-2-----|
 G||-------------------2-4-------4-2-|-------------------2-4-------4-2-|
 D||---------------0-----------------|---------------------------------|
 A||---------------------------------|---------------2-----------------|
 E||---------------------------------|---------------------------------|

||
|| E E E Q Q Q E E E E E E E E E E Q Q Q E E E E E E E
 
 e||-2-2-2-0---2---2-----0-2-3-2-0---|-2-2-2-0---2---2-----0-2-3-2-0---|
 B||-------------------3-----------3-|-------------------3-----------3-|
 G||---------------------------------|---------------------------------|
 D||---------------------------------|---------------------------------|
 A||---------------------------------|---------------------------------|
 E||---------------------------------|---------------------------------|

VERSE 1
W + (W) W + (W)
 
 e||---------------------------------|---------------------------------|
 B||---------------------------------|---------------------------------|
 G||-7~~-----------------------------|-6~~-----------------------------|
 D||---------------------------------|---------------------------------|
 A||---------------------------------|---------------------------------|
 E||---------------------------------|---------------------------------|

||
|| E E E Q Q Q E E E E E E E E E E Q Q Q E E E E E E E
 
 e||-2-2-2-0---2---2-----0-2-3-2-0---|-2-2-2-0---2---2-----0-2-3-2-0---|
 B||-------------------3-----------3-|-------------------3-----------3-|
 G||---------------------------------|---------------------------------|
 D||---------------------------------|---------------------------------|
 A||---------------------------------|---------------------------------|
 E||---------------------------------|---------------------------------|

x x x x x x x x x x x x x x x x x x x x
E E E Q Q Q E E E E E E E E E E Q Q Q E E E E E E E
 
 e||---------------------------------|---------------------------------|
 B||---------------------------------|---------------------------------|
 G||-4-4-4-4---4---4---4-4-4-4-4-4-4-|-4-4-4-4---4---4---4-4-4-6-6-6-6-|
 D||---------------------------------|---------------------------------|
 A||---------------------------------|---------------------------------|
 E||---------------------------------|---------------------------------|

|| x x x x x x x x x x x x x x x x x x x x x x x x x x
||
|| E E E Q Q Q E E E E E E E E E E Q Q Q E E E E E E E
 
 e||-2-2-2-0---2---2-----0-2-3-2-0---|-2-2-2-0---2---2-----0-2-3-2-0---|
 B||-------------------3-----------3-|-------------------3-----------3-|
 G||---------------------------------|---------------------------------|
 D||---------------------------------|---------------------------------|
 A||---------------------------------|---------------------------------|
 E||---------------------------------|---------------------------------|

x x x x x x x x x x x x x x x x x x x x
E E E Q Q Q E E E E E E E E E E Q Q Q E E E E E E E
 
 e||---------------------------------|---------------------------------|
 B||---------------------------------|---------------------------------|
 G||-7-7-7-7---7---7---7-7-7-7-7-7-7-|-6-6-6-6---6---6---6-6-6-6-6-6-6-|
 D||---------------------------------|---------------------------------|
 A||---------------------------------|---------------------------------|
 E||---------------------------------|---------------------------------|

|| x x x x x x x x x x x x x x x x x x x x x x x x x x
||
|| E E E Q Q Q E E E E E E E E E E Q Q Q E E E E E E E
 
 e||-2-2-2-0---2---2-----0-2-3-2-0---|-2-2-2-0---2---2-----0-2-3-2-0---|
 B||-------------------3-----------3-|-------------------3-----------3-|
 G||---------------------------------|---------------------------------|
 D||---------------------------------|---------------------------------|
 A||---------------------------------|---------------------------------|
 E||---------------------------------|---------------------------------|

x x x x x x x x x x x x x x x x x x x x
E E E Q Q Q E E E E E E E E E E Q Q Q E E E E E E E
 
 e||---------------------------------|---------------------------------|
 B||---------------------------------|---------------------------------|
 G||-4-4-4-4---4---4---4-4-4-4-4-4-4-|-2-2-2-2---2---2---2-2-2-2-2-2-2-|
 D||---------------------------------|---------------------------------|
 A||---------------------------------|---------------------------------|
 E||---------------------------------|---------------------------------|

|| x x x x x x x x x x x x x x x x x x x
||
|| E E E Q Q Q E E E E E E E E E E Q Q Q E E E E E E E
 
 e||-2-2-2-0---2---2-----0-2-3-2-0---|-2-2-2-0---2---2-----0-2-3-2-0---|
 B||-------------------3-----------3-|-------------------3-----------3-|
 G||---------------------------------|---------------------------------|
 D||---------------------------------|---------------------------------|
 A||---------------------------------|---------------------------------|
 E||---------------------------------|---------------------------------|

x x x x x x x x x x x x x x
CHORUS
[E] [E] [E] [E] [E] [E] [E] [E] [E] [E] [E] [E] [E] [E] [E] [E] [E] [E] [E] [E] [E] [E] [E] [E] [E] [E] [E] [E] [E] [E] [E] [E]  
 
 e||---------------------------------|---------------------------------|
 B||---------------------------------|---------------------------------|
 G||-----------------7-7-7-7-7-7-7-7-|---------------------------------|
 D||-5-5-5-5-5-5-5-5-7-7-7-7-7-7-7-7-|-7-7-7-7-7-7-7-7-7-7-7-7-7-7-7-7-|
 A||-5-5-5-5-5-5-5-5-5-5-5-5-5-5-5-5-|-7-7-7-7-7-7-7-7-7-7-7-7-7-7-7-7-|
 E||-3-3-3-3-3-3-3-3-----------------|-5-5-5-5-5-5-5-5-5-5-5-5-5-5-5-5-|

||
|| E E E E E E E E E E E E E E E E E E E E E E E E E E E E E E E E
 
 e||---------------------------------|---------------------------------|
 B||---------------------------------|---------------------------------|
 G||-----------------7-7-7-7-7-7-7-7-|---------------------------------|
 D||-5-5-5-5-5-5-5-5-7-7-7-7-7-7-7-7-|-7-7-7-7-7-7-7-7-7-7-7-7-7-7-7-7-|
 A||-5-5-5-5-5-5-5-5-5-5-5-5-5-5-5-5-|-7-7-7-7-7-7-7-7-7-7-7-7-7-7-7-7-|
 E||-3-3-3-3-3-3-3-3-----------------|-5-5-5-5-5-5-5-5-5-5-5-5-5-5-5-5-|

[E] [E] [E] [E] [E] [E] [E] [E] [E] [E] [E] [E] [E] [E] [E] [E] [E] [E] [E] [E] [E] [E] [E] [E] [E] [E] [E] [E] [E] [E] [E] [E]  
 
 e||---------------------------------|---------------------------------|
 B||---------------------------------|---------------------------------|
 G||-----------------7-7-7-7-7-7-7-7-|---------------------------------|
 D||-5-5-5-5-5-5-5-5-7-7-7-7-7-7-7-7-|-7-7-7-7-7-7-7-7-7-7-7-7-7-7-7-7-|
 A||-5-5-5-5-5-5-5-5-5-5-5-5-5-5-5-5-|-7-7-7-7-7-7-7-7-7-7-7-7-7-7-7-7-|
 E||-3-3-3-3-3-3-3-3-----------------|-5-5-5-5-5-5-5-5-5-5-5-5-5-5-5-5-|

||
|| E E E E E E E E E E E E E E E E E E E E E E E E E E E E E E E E
 
 e||---------------------------------|---------------------------------|
 B||---------------------------------|---------------------------------|
 G||-----------------7-7-7-7-7-7-7-7-|---------------------------------|
 D||-5-5-5-5-5-5-5-5-7-7-7-7-7-7-7-7-|-7-7-7-7-7-7-7-7-7-7-7-7-7-7-7-7-|
 A||-5-5-5-5-5-5-5-5-5-5-5-5-5-5-5-5-|-7-7-7-7-7-7-7-7-7-7-7-7-7-7-7-7-|
 E||-3-3-3-3-3-3-3-3-----------------|-5-5-5-5-5-5-5-5-5-5-5-5-5-5-5-5-|

[E] [E] [E] [E] [E] [E] [E] [E] [E] [E] [E] [E] [E] [E] [E] [E] [E] [E] [E] [E] [E] [E] [E] [E] [E] [E] [E] [E] [E] [E] [E] [E]  
 
 e||---------------------------------|---------------------------------|
 B||---------------------------------|---------------------------------|
 G||-4-4-4-4-4-4-4-4-6-6-6-6-6-6-6-6-|-9-9-9-9-9-9-9-9-9-9-9-9-9-9-9-9-|
 D||-x-x-x-x-x-x-x-x-x-x-x-x-x-x-x-x-|-x-x-x-x-x-x-x-x-x-x-x-x-x-x-x-x-|
 A||-2-2-2-2-2-2-2-2-4-4-4-4-4-4-4-4-|-7-7-7-7-7-7-7-7-7-7-7-7-7-7-7-7-|
 E||---------------------------------|---------------------------------|

||
|| E E E E E E E E E E E E E E E E E E E E E E E E E E E E E E E E
 
 e||---------------------------------|---------------------------------|
 B||---------------------------------|---------------------------------|
 G||-----------------7-7-7-7-7-7-7-7-|---------------------------------|
 D||-5-5-5-5-5-5-5-5-7-7-7-7-7-7-7-7-|-7-7-7-7-7-7-7-7-7-7-7-7-7-7-7-7-|
 A||-5-5-5-5-5-5-5-5-5-5-5-5-5-5-5-5-|-7-7-7-7-7-7-7-7-7-7-7-7-7-7-7-7-|
 E||-3-3-3-3-3-3-3-3-----------------|-5-5-5-5-5-5-5-5-5-5-5-5-5-5-5-5-|
 e||---------------------------------|---------------------------------|
 B||---------------------------------|---------------------------------|
 G||---------------------------------|---------------------------------|
 D||---------------------------------|---------------------------------|
 A||---------------------------------|---------------------------------|
 E||---------------------------------|---------------------------------|

||
|| Q E E E E Q E E Q E E Q Q E E E E Q E E Q E E Q
 
 e||---------------------------------|---------------------------------|
 B||---------------------------------|---------------------------------|
 G||---------------------------------|---------------------------------|
 D||-5---5-5-5-5-5---5-5-5---5-5-5---|-7---7-7-7-7-7---7-7-7---7-7-7---|
 A||-5---5-5-5-5-5---5-5-5---5-5-5---|-7---7-7-7-7-7---7-7-7---7-7-7---|
 E||-3---3-3-3-3-3---3-3-3---3-3-3---|-5---5-5-5-5-5---5-5-5---5-5-5---|

x x x x x x x x x x x x x x x x
BRIDGE
E E E Q Q Q E E E E E E E E E E Q Q Q E E E E E E E
 
 e||---------------------------------|---------------------------------|
 B||-3-3-3-2---3-----------2-3-2-----|-3-3-3-2---3-----------2-3-2-----|
 G||-------------------2-4-------4-2-|-------------------2-4-------4-2-|
 D||---------------0-----------------|---------------------------------|
 A||---------------------------------|---------------2-----------------|
 E||---------------------------------|---------------------------------|

||
|| E E E E E E E E E E E E E E E E E
 
 e||---------------------------------|---------------------------------|
 B||---------------------------------|---------------------------------|
 G||---------------------------------|---------------------------------|
 D||-12------------------------------|-9-9-9-9-9-9-9-9-9-9-9-9-9-9-9-9-|
 A||-12------------------------------|-9-9-9-9-9-9-9-9-9-9-9-9-9-9-9-9-|
 E||-10------------------------------|-7-7-7-7-7-7-7-7-7-7-7-7-7-7-7-7-|

E E E Q Q Q E E E E E E E E E E Q Q Q E E E E E E E
 
 e||---------------------------------|---------------------------------|
 B||-3-3-3-2---3-----------2-3-2-----|-3-3-3-2---3-----------2-3-2-----|
 G||-------------------2-4-------4-2-|-------------------2-4-------4-2-|
 D||---------------0-----------------|---------------------------------|
 A||---------------------------------|---------------2-----------------|
 E||---------------------------------|---------------------------------|

||
|| E E E Q Q Q E E E E E E E E E E E E E E E E E E E E E E E
 
 e||-2-2-2-0---2---2-----0-2-3-2-0---|---------------------------------|
 B||-------------------3-----------3-|---------------------------------|
 G||---------------------------------|---------------------------------|
 D||---------------------------------|-9-9-9-9-9-9-9-9-9-9-9-9-9-9-9-9-|
 A||---------------------------------|-9-9-9-9-9-9-9-9-9-9-9-9-9-9-9-9-|
 E||---------------------------------|-7-7-7-7-7-7-7-7-7-7-7-7-7-7-7-7-|

VERSE 2
E E E Q Q Q E E E E E E E E E E Q Q Q E E E E E E E
 
 e||---------------------------------|---------------------------------|
 B||---------------------------------|---------------------------------|
 G||---------------------------------|---------------------------------|
 D||---------------------------------|---------------------------------|
 A||---------------------------------|---------------------------------|
 E||-3-3-3-3---3---3---3-3-3-3-3-3-3-|-5-5-5-5---5---5---5-5-5-5-5-5-5-|

|| x x x x x x x x x x x x x x x x x x x x x x x x x x
||
|| E E E Q Q Q E E E E E E E E E E Q Q Q E E E E E E E
 
 e||-2-2-2-0---2---2-----0-2-3-2-0---|-2-2-2-0---2---2-----0-2-3-2-0---|
 B||-------------------3-----------3-|-------------------3-----------3-|
 G||---------------------------------|---------------------------------|
 D||---------------------------------|---------------------------------|
 A||---------------------------------|---------------------------------|
 E||---------------------------------|---------------------------------|

x x x x x x x x x x x x x x x x x x x x
E E E Q Q Q E E E E E E E E E E Q Q Q E E E E E E E
 
 e||---------------------------------|---------------------------------|
 B||---------------------------------|---------------------------------|
 G||---------------------------------|---------------------------------|
 D||---------------------------------|---------------------------------|
 A||---------------------------------|---------------------------------|
 E||-7-7-7-7---7---7---7-7-7-7-7-7-7-|-7-7-7-7---7---7---7-7-7-5-5-5-5-|

|| x x x x x x x x x x x x x x x x x x x x x x x x x x
||
|| E E E Q Q Q E E E E E E E E E E Q Q Q E E E E E E E
 
 e||-2-2-2-0---2---2-----0-2-3-2-0---|-2-2-2-0---2---2-----0-2-3-2-0---|
 B||-------------------3-----------3-|-------------------3-----------3-|
 G||---------------------------------|---------------------------------|
 D||---------------------------------|---------------------------------|
 A||---------------------------------|---------------------------------|
 E||---------------------------------|---------------------------------|

x x x x x x x x x x x x x x x x x x x x
E E E Q Q Q E E E E E E E E E E Q Q Q E E E E E E E
 
 e||---------------------------------|---------------------------------|
 B||---------------------------------|---------------------------------|
 G||---------------------------------|---------------------------------|
 D||---------------------------------|---------------------------------|
 A||---------------------------------|---------------------------------|
 E||-3-3-3-3---3---3---3-3-3-3-3-3-3-|-5-5-5-5---5---5---5-5-5-5-5-5-5-|

|| x x x x x x x x x x x x x x x x x x x x x x x x x x
||
|| E E E Q Q Q E E E E E E E E E E Q Q Q E E E E E E E
 
 e||-2-2-2-0---2---2-----0-2-3-2-0---|-2-2-2-0---2---2-----0-2-3-2-0---|
 B||-------------------3-----------3-|-------------------3-----------3-|
 G||---------------------------------|---------------------------------|
 D||---------------------------------|---------------------------------|
 A||---------------------------------|---------------------------------|
 E||---------------------------------|---------------------------------|

x x x x x x x x x x x x x x x x x x x x
E E E Q Q Q E E E E E E E E E E Q Q Q E E E E E E E
 
 e||---------------------------------|---------------------------------|
 B||---------------------------------|---------------------------------|
 G||---------------------------------|---------------------------------|
 D||---------------------------------|---------------------------------|
 A||---------------------------------|---------------------------------|
 E||-7-7-7-7---7---7---7-7-7-7-7-7-7-|-5-5-5-5---5---5---5-5-5-5-5-5-5-|

|| x x x x x x x x x x x x x x x x x x x
||
|| E E E Q Q Q E E E E E E E E E E Q Q Q E E E E E E E
 
 e||-2-2-2-0---2---2-----0-2-3-2-0---|-2-2-2-0---2---2-----0-2-3-2-0---|
 B||-------------------3-----------3-|-------------------3-----------3-|
 G||---------------------------------|---------------------------------|
 D||---------------------------------|---------------------------------|
 A||---------------------------------|---------------------------------|
 E||---------------------------------|---------------------------------|

x x x x x x x x x x x x x
CHORUS
[E] [E] [E] [E] [E] [E] [E] [E] [E] [E] [E] [E] [E] [E] [E] [E] [E] [E] [E] [E] [E] [E] [E] [E] [E] [E] [E] [E] [E] [E] [E] [E]  
 
 e||---------------------------------|---------------------------------|
 B||---------------------------------|---------------------------------|
 G||-----------------7-7-7-7-7-7-7-7-|---------------------------------|
 D||-5-5-5-5-5-5-5-5-7-7-7-7-7-7-7-7-|-7-7-7-7-7-7-7-7-7-7-7-7-7-7-7-7-|
 A||-5-5-5-5-5-5-5-5-5-5-5-5-5-5-5-5-|-7-7-7-7-7-7-7-7-7-7-7-7-7-7-7-7-|
 E||-3-3-3-3-3-3-3-3-----------------|-5-5-5-5-5-5-5-5-5-5-5-5-5-5-5-5-|

||
|| E E E E E E E E E E E E E E E E E E E E E E E E E E E E E E E E
 
 e||---------------------------------|---------------------------------|
 B||---------------------------------|---------------------------------|
 G||-----------------7-7-7-7-7-7-7-7-|---------------------------------|
 D||-5-5-5-5-5-5-5-5-7-7-7-7-7-7-7-7-|-7-7-7-7-7-7-7-7-7-7-7-7-7-7-7-7-|
 A||-5-5-5-5-5-5-5-5-5-5-5-5-5-5-5-5-|-7-7-7-7-7-7-7-7-7-7-7-7-7-7-7-7-|
 E||-3-3-3-3-3-3-3-3-----------------|-5-5-5-5-5-5-5-5-5-5-5-5-5-5-5-5-|

[E] [E] [E] [E] [E] [E] [E] [E] [E] [E] [E] [E] [E] [E] [E] [E] [E] [E] [E] [E] [E] [E] [E] [E] [E] [E] [E] [E] [E] [E] [E] [E]  
 
 e||---------------------------------|---------------------------------|
 B||---------------------------------|---------------------------------|
 G||-----------------7-7-7-7-7-7-7-7-|---------------------------------|
 D||-5-5-5-5-5-5-5-5-7-7-7-7-7-7-7-7-|-7-7-7-7-7-7-7-7-7-7-7-7-7-7-7-7-|
 A||-5-5-5-5-5-5-5-5-5-5-5-5-5-5-5-5-|-7-7-7-7-7-7-7-7-7-7-7-7-7-7-7-7-|
 E||-3-3-3-3-3-3-3-3-----------------|-5-5-5-5-5-5-5-5-5-5-5-5-5-5-5-5-|

||
|| E E E E E E E E E E E E E E E E E E E E E E E E E E E E E E E E
 
 e||---------------------------------|---------------------------------|
 B||---------------------------------|---------------------------------|
 G||-----------------7-7-7-7-7-7-7-7-|---------------------------------|
 D||-5-5-5-5-5-5-5-5-7-7-7-7-7-7-7-7-|-7-7-7-7-7-7-7-7-7-7-7-7-7-7-7-7-|
 A||-5-5-5-5-5-5-5-5-5-5-5-5-5-5-5-5-|-7-7-7-7-7-7-7-7-7-7-7-7-7-7-7-7-|
 E||-3-3-3-3-3-3-3-3-----------------|-5-5-5-5-5-5-5-5-5-5-5-5-5-5-5-5-|

[E] [E] [E] [E] [E] [E] [E] [E] [E] [E] [E] [E] [E] [E] [E] [E] [E] [E] [E] [E] [E] [E] [E] [E] [E] [E] [E] [E] [E] [E] [E] [E]  
 
 e||---------------------------------|---------------------------------|
 B||---------------------------------|---------------------------------|
 G||-4-4-4-4-4-4-4-4-6-6-6-6-6-6-6-6-|-9-9-9-9-9-9-9-9-9-9-9-9-9-9-9-9-|
 D||-x-x-x-x-x-x-x-x-x-x-x-x-x-x-x-x-|-x-x-x-x-x-x-x-x-x-x-x-x-x-x-x-x-|
 A||-2-2-2-2-2-2-2-2-4-4-4-4-4-4-4-4-|-7-7-7-7-7-7-7-7-7-7-7-7-7-7-7-7-|
 E||---------------------------------|---------------------------------|

||
|| E E E E E E E E E E E E E E E E E E E E E E E E E E E E E E E E
 
 e||---------------------------------|---------------------------------|
 B||---------------------------------|---------------------------------|
 G||-----------------7-7-7-7-7-7-7-7-|---------------------------------|
 D||-5-5-5-5-5-5-5-5-7-7-7-7-7-7-7-7-|-7-7-7-7-7-7-7-7-7-7-7-7-7-7-7-7-|
 A||-5-5-5-5-5-5-5-5-5-5-5-5-5-5-5-5-|-7-7-7-7-7-7-7-7-7-7-7-7-7-7-7-7-|
 E||-3-3-3-3-3-3-3-3-----------------|-5-5-5-5-5-5-5-5-5-5-5-5-5-5-5-5-|
 e||---------------------------------|---------------------------------|
 B||---------------------------------|---------------------------------|
 G||---------------------------------|---------------------------------|
 D||---------------------------------|---------------------------------|
 A||---------------------------------|---------------------------------|
 E||---------------------------------|---------------------------------|

||
|| Q E E E E Q E E Q E E Q Q E E E E Q E E Q E E Q
 
 e||---------------------------------|---------------------------------|
 B||---------------------------------|---------------------------------|
 G||---------------------------------|---------------------------------|
 D||-5---5-5-5-5-5---5-5-5---5-5-5---|-7---7-7-7-7-7---7-7-7---7-7-7---|
 A||-5---5-5-5-5-5---5-5-5---5-5-5---|-7---7-7-7-7-7---7-7-7---7-7-7---|
 E||-3---3-3-3-3-3---3-3-3---3-3-3---|-5---5-5-5-5-5---5-5-5---5-5-5---|

x x x x x x x x x x x x x x x x
INTERLUDE
W + (H) E. E.E W W
 
 e||---------------------------------|---------------------------------|
 B||---------------------------------|---------------------------------|
 G||-4~~------------------------7----|---------------------------------|
 D||-------------------------7----7--|-7--------------PICK SLIDE-------|
 A||---------------------------------|---------------------------------|
 E||---------------------------------|---------------------------------|

|| |Nat. Harm.|
|| W + (W) W
 
 e||---------------------------------|---------------------------------|
 B||---------------------------------|---------------------------------|
 G||---------------------------------|---------------------------------|
 D||---------------------------------|---------------------------------|
 A||-2~~-----------------------------|-PICK SLIDE----------------------|
 E||---------------------------------|---------------------------------|

H E E E Q E Q H E Q. E Q.
 
 e||---------------------------------|---------------------------------|
 B||---------------------------------|---------------------------------|
 G||---------------------------------|---------------------------------|
 D||---------------------2h4---2-----|---------------------------------|
 A||-2~~-------------4h5---------5---|-4~~-------------4h5-----4h5-----|
 E||---------------------------------|---------------------------------|

||
|| H E E E Q E Q H E Q. E Q.
 
 e||---------------------------------|---------------------------------|
 B||---------------------------------|---------------------------------|
 G||---------------------------------|---------------------------------|
 D||---------------------2h4---2-----|---------------------------------|
 A||-2~~-------------4h5---------5---|-4~~-------------4h5-----4h5-----|
 E||---------------------------------|---------------------------------|

H E E E Q E Q H E Q. E Q.
 
 e||---------------------------------|---------------------------------|
 B||---------------------------------|---------------------------------|
 G||---------------------------------|---------------------------------|
 D||---------------------2h4---2-----|---------------------------------|
 A||-2~~-------------4h5---------5---|-5~~-------------4h5-----4h5-----|
 E||---------------------------------|---------------------------------|

||
|| H E E E Q E Q H E Q. E Q.
 
 e||---------------------------------|---------------------------------|
 B||---------------------------------|---------------------------------|
 G||---------------------------------|---------------------------------|
 D||---------------------2h4---2-----|---------------------------------|
 A||-2~~-------------4h5---------5---|-5~~-------------4h5-----4h5-----|
 E||---------------------------------|---------------------------------|

Q E E E E E E E E E Q E Q Q E E E E E E E E E E E E E E
 
 e||---------------------0h2---0-----|---------------------------------|
 B||-0---0-0-0-0-0-0-2h3---------3---|-2---2-2-2-2-2-2-2h3-3-3-2h3-3-3-|
 G||---------------------------------|---------------------------------|
 D||---------------------------------|---------------------------------|
 A||---------------------------------|---------------------------------|
 E||---------------------------------|---------------------------------|

|| x x x x x x x x x x x x x x x x x x x x
||
|| Q E E E E E E E E E Q E Q Q E E E E E E E E E E E E E E
 
 e||-----------------------5---3-2---|-0---0-0-0-0-0-0-0h2-2-2-0h2-2-2-|
 B||---------------------------------|---------------------------------|
 G||---------------------------------|---------------------------------|
 D||---------------------2-----------|---------------------------------|
 A||-2---2-2-2-2-2-2-4h5-------------|---------------------------------|
 E||---------------------------------|---------------------------------|

x x x x x x x x x x x x x x x x x x x x
Q E E E E E E E E E Q E Q Q E E E E E E E E E E E E E E
 
 e||---------------------0h2---0-----|---------------------------------|
 B||-0---0-0-0-0-0-0-2h3---------3---|-3---3-3-3-3-3-3-2h3-3-3-2h3-3-3-|
 G||---------------------------------|---------------------------------|
 D||---------------------------------|---------------------------------|
 A||---------------------------------|---------------------------------|
 E||---------------------------------|---------------------------------|

|| x x x x x x x x x x x x x x x x x x x x
||
|| Q E E E E E E E E E Q E Q Q E E E E E E E E E E E E E E
 
 e||-----------------------5---3-2---|-2---2-2-2-2-2-2-0h2-2-2-0h2-2-2-|
 B||---------------------------------|---------------------------------|
 G||---------------------------------|---------------------------------|
 D||---------------------2-----------|---------------------------------|
 A||-2---2-2-2-2-2-2-4h5-------------|---------------------------------|
 E||---------------------------------|---------------------------------|

x x x x x x x x x x x x x x x x x x x x
OUTRO : 4 times, then fade out
[E] [E] [E] [E] [E] [E] [E] [E] [E] [E] [E] [E] [E] [E] [E] [E] [E] [E] [E] [E] [E] [E] [E] [E] [E] [E] [E] [E] [E] [E] [E] [E]  
 
 e||---------------------------------|---------------------------------|
 B||---------------------------------|---------------------------------|
 G||---------------------------------|---------------------------------|
 D||-9-9-9-9-9-9-9-9-9-9-9-9-9-9-9-9-|-4-4-4-4-4-4-4-4-4-4-4-4-4-4-4-4-|
 A||-9-9-9-9-9-9-9-9-9-9-9-9-9-9-9-9-|-4-4-4-4-4-4-4-4-4-4-4-4-4-4-4-4-|
 E||-7-7-7-7-7-7-7-7-7-7-7-7-7-7-7-7-|-2-2-2-2-2-2-2-2-2-2-2-2-2-2-2-2-|

||
|| E E E E E E E E E E E E E E E E E E E E E E E E E E E E E E E E
 
 e||---------------------------------|---------------------------------|
 B||---------------------------------|---------------------------------|
 G||---------------------------------|---------------------------------|
 D||-9-9-9-9-9-9-9-9-9-9-9-9-9-9-9-9-|-4-4-4-4-4-4-4-4-4-4-4-4-4-4-4-4-|
 A||-9-9-9-9-9-9-9-9-9-9-9-9-9-9-9-9-|-4-4-4-4-4-4-4-4-4-4-4-4-4-4-4-4-|
 E||-7-7-7-7-7-7-7-7-7-7-7-7-7-7-7-7-|-2-2-2-2-2-2-2-2-2-2-2-2-2-2-2-2-|

[E] [E] [E] [E] [E] [E] [E] [E] [E] [E] [E] [E] [E] [E] [E] [E] [E] [E] [E] [E] [E] [E] [E] [E] [E] [E] [E] [E] [E] [E] [E] [E]  
 
 e||---------------------------------|---------------------------------|
 B||---------------------------------|---------------------------------|
 G||---------------------------------|-7-7-7-7-7-7-7-7-----------------|
 D||-5-5-5-5-5-5-5-5-5-5-5-5-5-5-5-5-|-7-7-7-7-7-7-7-7-7-7-7-7-7-7-7-7-|
 A||-5-5-5-5-5-5-5-5-5-5-5-5-5-5-5-5-|-5-5-5-5-5-5-5-5-7-7-7-7-7-7-7-7-|
 E||-3-3-3-3-3-3-3-3-3-3-3-3-3-3-3-3-|-----------------5-5-5-5-5-5-5-5-|

||
|| E E E E E E E E E E E E E E E E E E E E E E E E E E E E E E E E
 
 e||---------------------------------|---------------------------------|
 B||---------------------------------|---------------------------------|
 G||---------------------------------|-7-7-7-7-7-7-7-7-----------------|
 D||-5-5-5-5-5-5-5-5-5-5-5-5-5-5-5-5-|-7-7-7-7-7-7-7-7-7-7-7-7-7-7-7-7-|
 A||-5-5-5-5-5-5-5-5-5-5-5-5-5-5-5-5-|-5-5-5-5-5-5-5-5-7-7-7-7-7-7-7-7-|
 E||-3-3-3-3-3-3-3-3-3-3-3-3-3-3-3-3-|-----------------5-5-5-5-5-5-5-5-|

hope its right, if not email me at djsewigman@excite.com

Important: The song above is NOT stored on the Chordie server. The original song is hosted at www.guitaretab.com. Chordie works as a search engine and provides on-the-fly formatting. Chordie does not index songs against artists'/composers' will. To remove this song please click here.

Text color:
Chord color:
Chord grids: 
Font size:    
Page size: 

E
Rate #1 of 1 versions

Jango Player

Login - add to songbook

SHARE PAGE  




You need to log in to post comments