Guitar Tabs, Chords and Lyrics
Server problems seems to be fixed. Chordie has been experiencing problems with songs disappearing. These issues now seems to be fixed, but still verifying the fix. If you find anything strange, please email admin@chordie.com.


Cold Cash and Colder Hearts  Thrice

Tuning: D G C F A D
[Am] [A(add9)] [Am7] [C] [D(add9)] [D6(add9)] [E] [F]  
 
 |--0------0------3---0-----0--------0-------0---1--------|
 |--1------0------1---1-----3--------0-------0---1--------|
 |--2------2------2---0-----2--------2-------1---2--------|
 |--2------2------2---2-----0--------0-------2---3--------|
 |--0------0------0---3----------------------2------------|
 |-------------------------------------------0------------|

Verse
they are s[Am]ick[C]
they are po[Am]or[C]
and they d[F]ie by the thousands and w[D(add9)]e look away
they are wo[Am]lves [C]
at the d[Am]oor[C]
and they're n[F]ot going to move us
or [D(add9)]get in our way
cause we d[D(add9)]on't have the time
he[D6(add9)]re at the top of the wo[Am]rld[Am7]
[D(add9)]doing just fine
[D6(add9)]here at the top of the world[Am]
[F]we ho[E]ld our [Am]own
by k[F]eep[Am]ing o[E]ur hearts c[Am]old
different g[Am]od[C]
darker sk[Am]in[C]
they are ju[F]st not a burden
that we[D(add9)]'d like to bear
they are l[Am]ivi[C]ng in s[Am]in[C]
there are s[F]o many reasons for u[D(add9)]s not to care
but i'm f[D(add9)]eeling alright
[D6(add9)]here at the top of the worl[Am]d[Am7]
[D(add9)]doing just fine
[D6(add9)]here at the top of the world[D(add9)]
Bridge: Guitar 1
we've learned money matters mo[Am]st[Am7] [Am] [Am7]
so we keep
our ca[D(add9)]rds held close
here at the top of the wo[Am]rld
Bridge: Guitar 2
 
 |---------1-0----------|---------0--------------|
 |-------1-----1--------|-----------1------------|
 |-----2---------2?--x2-|------2------0?0h2?--x2-|
 |---3------------------|----2-------------------|
 |----------------------|--0---------------------|
 |----------------------|------------------------|
 |---------1-0----------|------------------------|
 |-------1-----1--------|------------------------|
 |-----2---------2---x2-|------------------------|
 |---3------------------|------------------------|
 |----------------------|------------------------|
 |----------------------|------------------------|

End Of Bridge
[F]we [E]hold our [Am]own
by [F]kee[Am]ping [E]our hearts [Am]cold
and [Am]we've [F]learned what [E]matters [Am]most
so [F]we [Am]keep [E]our hearts [Am]cold
[Am]they are no one
[E]they are nowhere
[Am]they are not our problem
[Am]not worth saving
[Am]non existent
if we [E]keep our hearts cold
[Am]they[A(add9)] are no one
[Am]they[A(add9)] are nowhere
The strumming on the last two lines is not correct. He changes chords too fast to tab out.

Important: The song above is NOT stored on the Chordie server. The original song is hosted at www.guitaretab.com. Chordie works as a search engine and provides on-the-fly formatting. Chordie does not index songs against artists'/composers' will. To remove this song please click here.

Text color:
Chord color:
Chord grids: 
Font size:    
Page size: 

A(add9) Am Am7 C D(add9) E F
Rate #1 of 7 versions

Login - add to songbook

SHARE PAGE  




You need to log in to post comments