Guitar Tabs, Chords and Lyrics
Server problems seems to be fixed. Chordie has been experiencing problems with songs disappearing. These issues now seems to be fixed, but still verifying the fix. If you find anything strange, please email admin@chordie.com.


Red Sky  Thrice

Intro/Verse
[Am] [G]  
 
 e-----------------------|-----------------5--|
 B------------3----------|-----------------5--|
 D------------4----------|--------------------| (x2)
 G-------4---------------|--------------------|
 A---2-------------------|----------4---------|
 E-----------------------|-------5------------|

I know what lies beneath. I?ve seen the flash of teeth
[F] [Am] [G]  
 
 e----------------------|------------------------|-----------------5--------|
 B----------3-----------|------------3-----------|-----------------5--------|
 D----------4-----------|------------4-----------|--------------------------|
 G----------------------|-------4----------------|--------------------------|
 A------5---------------|---2--------------------|----------4---------------|
 E---3------------------|------------------------|-------5------------------|

Conspiring with the reef to sink our ship
[Am] [G]  
 
 e-----------------------|-----------------5--|
 B------------3----------|-----------------5--|
 D------------4----------|--------------------| (x2)
 G-------4---------------|--------------------|
 A---2-------------------|----------4---------|
 E-----------------------|-------5------------|

The wind?s a cheating wife. Her tongue a thirsty knife
[F] [Am] [G]  
 
 e----------------------|------------------------|-----------------5--------|
 B----------3-----------|------------3-----------|-----------------5--------|
 D----------4-----------|------------4-----------|--------------------------|
 G----------------------|-------4----------------|--------------------------|
 A------5---------------|---2--------------------|----------4---------------|
 E---3------------------|------------------------|-------5------------------|

And she could take your life with one good kiss
Chorus
[F] [Am]  
 
 e--------3-3-3-3-3-3-3-3----------|------------2-2-2-2-2-2-2-2----------|
 B--------3-3-3-3-3-3-3-3----------|------------3-3-3-3-3-3-3-3----------|
 D--------4-4-4-4-4-4-4-4----------|------------4-4-4-4-4-4-4-4----------|
 G--------5-5-5-5-5-5-5-5----------|------------4-4-4-4-4-4-4-4----------|
 A--------5-5-5-5-5-5-5-5----------|------------2-2-2-2-2-2-2-2----------|
 E--------3-3-3-3-3-3-3-3----------|------------2-2-2-2-2-2-2-2----------|

Can you see the sky turn red as morning?s light breaks over me
[F] [Am]  
 
 e--------3-3-3-3-3-3-3-3----------|------------2-2-2-2-2-2-2-2----------|---------2-2-2-2-2-2-2-2-2-2-2-2-2-2-2-2--|
 B--------3-3-3-3-3-3-3-3----------|------------2-2-2-2-2-2-2-2----------|--------5-5-5-5-5-5-5-5-5-5-5-5-5-5-5-5---|
 D--------4-4-4-4-4-4-4-4----------|------------4-4-4-4-4-4-4-4----------|--------3-3-3-3-3-3-3-3-3-3-3-3-3-3-3-3---|
 G--------5-5-5-5-5-5-5-5----------|------------4-4-4-4-4-4-4-4----------|--------4-4-4-4-4-4-4-4-4-4-4-4-4-4-4-4---|
 A--------5-5-5-5-5-5-5-5----------|------------2-2-2-2-2-2-2-2----------|--------4-4-4-4-4-4-4-4-4-4-4-4-4-4-4-4---|
 E--------3-3-3-3-3-3-3-3----------|------------2-2-2-2-2-2-2-2----------|---------2-2-2-2-2-2-2-2-2-2-2-2-2-2-2-2--|

Know tonight we?ll make our bed at the bottom of the sea
Verse
[Am] [G]  
 
 e-----------------------|-----------------5--|
 B------------3----------|-----------------5--|
 D------------4----------|--------------------| (x2)
 G-------4---------------|--------------------|
 A---2-------------------|----------4---------|
 E-----------------------|-------5------------|

I know the ocean speaks, I?ve heard her call to me
[F] [Am] [G]  
 
 e----------------------|------------------------|-----------------5--------|
 B----------3-----------|------------3-----------|-----------------5--------|
 D----------4-----------|------------4-----------|--------------------------|
 G----------------------|-------4----------------|--------------------------|
 A------5---------------|---2--------------------|----------4---------------|
 E---3------------------|------------------------|-------5------------------|

And smiling in my dreams she whispers this
Chorus
[F] [Am]  
 
 e--------3-3-3-3-3-3-3-3----------|------------2-2-2-2-2-2-2-2----------|
 B--------3-3-3-3-3-3-3-3----------|------------3-3-3-3-3-3-3-3----------|
 D--------4-4-4-4-4-4-4-4----------|------------4-4-4-4-4-4-4-4----------|
 G--------5-5-5-5-5-5-5-5----------|------------4-4-4-4-4-4-4-4----------|
 A--------5-5-5-5-5-5-5-5----------|------------2-2-2-2-2-2-2-2----------|
 E--------3-3-3-3-3-3-3-3----------|------------2-2-2-2-2-2-2-2----------|

Can you see the sky turn red as morning?s light breaks over me
[F] [Am]  
 
 e--------3-3-3-3-3-3-3-3----------|------------2-2-2-2-2-2-2-2----------|---------2-2-2-2-2-2-2-2-2-2-2-2-2-2-2-2--|
 B--------3-3-3-3-3-3-3-3----------|------------2-2-2-2-2-2-2-2----------|--------5-5-5-5-5-5-5-5-5-5-5-5-5-5-5-5---|
 D--------4-4-4-4-4-4-4-4----------|------------4-4-4-4-4-4-4-4----------|--------3-3-3-3-3-3-3-3-3-3-3-3-3-3-3-3---|
 G--------5-5-5-5-5-5-5-5----------|------------4-4-4-4-4-4-4-4----------|--------4-4-4-4-4-4-4-4-4-4-4-4-4-4-4-4---|
 A--------5-5-5-5-5-5-5-5----------|------------2-2-2-2-2-2-2-2----------|--------4-4-4-4-4-4-4-4-4-4-4-4-4-4-4-4---|
 E--------3-3-3-3-3-3-3-3----------|------------2-2-2-2-2-2-2-2----------|---------2-2-2-2-2-2-2-2-2-2-2-2-2-2-2-2--|

Know tonight we?ll make our bed at the bottom of the sea
[F] [Am] 
 
 e--------3-3-3-3-3-3-3-3----------|------------2-2-2-2-2-2-2-2----------|
 B--------3-3-3-3-3-3-3-3----------|------------3-3-3-3-3-3-3-3----------|
 D--------4-4-4-4-4-4-4-4----------|------------4-4-4-4-4-4-4-4----------| (x2)
 G--------5-5-5-5-5-5-5-5----------|------------4-4-4-4-4-4-4-4----------|
 A--------5-5-5-5-5-5-5-5----------|------------2-2-2-2-2-2-2-2----------|
 E--------3-3-3-3-3-3-3-3----------|------------2-2-2-2-2-2-2-2----------|

Look and see the sky turn red, like blood it covers over me
[F] [Am] 
[Abdim/E]  
 
 e-----3-3-3-3-3-3-3-3--------|------------2-2-2-2-2-2-2-2----------|------------2-2-2-2-2-2-2-2-2-2-2-2-2-2-2-2---|
 B-----3-3-3-3-3-3-3-3--------|------------3-3-3-3-3-3-3-3----------|------------5-5-5-5-5-5-5-5-5-5-5-5-5-5-5-5---|
 D-----4-4-4-4-4-4-4-4--------|------------4-4-4-4-4-4-4-4----------|------------3-3-3-3-3-3-3-3-3-3-3-3-3-3-3-3---|
 G-----5-5-5-5-5-5-5-5--------|------------4-4-4-4-4-4-4-4----------|------------4-4-4-4-4-4-4-4-4-4-4-4-4-4-4-4---|
 A-----5-5-5-5-5-5-5-5--------|------------2-2-2-2-2-2-2-2----------|------------4-4-4-4-4-4-4-4-4-4-4-4-4-4-4-4---|
 E-----3-3-3-3-3-3-3-3--------|------------2-2-2-2-2-2-2-2----------|------------2-2-2-2-2-2-2-2-2-2-2-2-2-2-2-2---|

And soon the sea shall give up her dead, and raise an empire at the bottom of the sea
Outro
 
 e------2-2-2-2-2-2-2-2-2-----|------2-2-2-2-2-2-2-2-2---------|
 B------3-3-3-3-3-3-3-3-3-----|------2-2-2-2-2-2-2-2-2---------|
 D------2-2-2-2-2-2-2-2-2-----|------2-2-2-2-2-2-2-2-2---------|
 G------4-4-4-4-4-4-4-4-4-----|------4-4-4-4-4-4-4-4-4---------|
 A------5-5-5-5-5-5-5-5-5-----|------4-4-4-4-4-4-4-4-4---------|
 E------2-2-2-2-2-2-2-2-2-----|------2-2-2-2-2-2-2-2-2---------|

Sea (repeated like a million times)
-Fade out on the C-

Important: The song above is NOT stored on the Chordie server. The original song is hosted at www.guitaretab.com. Chordie works as a search engine and provides on-the-fly formatting. Chordie does not index songs against artists'/composers' will. To remove this song please click here.

Text color:
Chord color:
Chord grids: 
Font size:    
Page size: 

Am F G
Rate #2 of 9 versions

Jango Player

Login - add to songbook

SHARE PAGE  




You need to log in to post comments