Guitar Tabs, Chords and Lyrics
Major upgrade!! After one year development the new version of Chordie is now online! Please give feedback.


The Southernmost Voyage   Tiamat

 
 D||---------------0-----------|------------------------|
 A||------------------0--------|------------------------|
 F||------------0--------0-----|-------------------0----|
 C||---------2--------------2--|--------0----2--3-------|
 G||------2--------------------|--2--3------------------|
 D||---0-----------------------|------------------------|
 |--------------0-----------|-----------0--1p-0---------||
 |-----------------0--------|--------3-----------3------||
 |-----------0--------0-----|-----2-----------------2---||
 |--------2--------------2--|--0------------------------||
 |-----2--------------------|---------------------------||
 |--0-----------------------|---------------------------||

 


 


 Riff B


 

 
 D||---------------------------|---------------------------||
 A||---------4-----------4-----|--------4-----------4------||
 F||------0------5----0-----5--|-----0-----5-----0-----5---||
 C||---------------------------|---------------------------||
 G||---3-----------2-----------|--1-----------0------------||
 D||---------------------------|---------------------------||

 


 


 Riff C


 

 
 D||--------------1--------1--|------------------------|--------------0--------0--|
 A||-----------------1--------|----1-------1-----------|-----------------3--------|
 F||-----------1--------1-----|-------1-------1--------|-----------0--------0-----|
 C||--------3-----------------|------------------3-----|--------2-----------------|
 G||-----3--------------------|------------------------|-----1--------------------|
 D||--1-----------------------|---------------------0--|--3-----------------------|
 |--------0----------------||
 |--3--------3-------------||
 |-----0--------------0----||
 |--------------2--3-------||
 |-------------------------||
 |-------------------------||

 


 


 Riff D


 

 
 D||------------0--------------|-----1--------1-----------|
 A||---------------0-----------|--------2--------2--------|
 F||------------------0--------|--3--------3--------3-----|
 C||---------2--------------3--|--------------------------|
 G||------2--------------1-----|--------------------------|
 D||---0-----------------------|--------------------------|
 |------------0--------------|-----1--------1-----------||
 |---------------0-----------|--------1--------1--------||
 |------------------0--------|-----------1--------1-----||
 |---------2-----------------|--3-----------------------||
 |------2-----------------3--|--------------------------||
 |---0-----------------1-----|--------------------------||


Important: The song above is NOT stored on the Chordie server. The original song is hosted at www.guitaretab.com. Chordie works as a search engine and provides on-the-fly formatting. Chordie does not index songs against artists'/composers' will. To remove this song please click here.

This song is displayed as text-only. Transposing and tuning is only available for chordpro-songs.
Rate #1 of 4 versions

Login - add to songbook

SHARE PAGE  



You need to log in to post comments