Guitar Tabs, Chords and Lyrics
Server problems seems to be fixed. Chordie has been experiencing problems with songs disappearing. These issues now seems to be fixed, but still verifying the fix. If you find anything strange, please email admin@chordie.com.


Kiss You All Over  Tiffany

(Agusto/Arnold)
INTRO:
No Chord (C)
(keyboard fade in)
 
 e-|--------------------|----------|--------------------------------|
 B-|--------------------|----------|------------5-------------------|
 G-|--------------------|----------|--7---b(9)-----(9)b(10)r(9)r7---|
 D-|--------------------|--5---5---|--------------------------------|
 A-|--------------------|----------|--------------------------------|
 E-|--------------------|----------|--------------------------------|

[Fmaj7]  
 
 e-|------------------------------|--------------------------------|
 B-|------------------------------|--------------------------------|
 G-|----------5-7-7b(9)----r7-----|------------5--7--7b(9)r7p5-----|
 D-|--------5------------------5--|-5~------7-------------------7--|
 A-|------------------------------|--------------------------------|
 E-|------------------------------|--------------------------------|

[G] [Am]  
 
 e-|----------------------------------|-----------------------------|
 B-|----------------------------------|-----------------------------|
 G-|--5---------7p5------7--7b(9)-----|----------7---5\4--5/7~------|
 D-|----------------------------------|-----------------------------|
 A-|----------------------------------|-----------------------------|
 E-|----------------------------------|-----------------------------|

[G] [F]  
 
 e-|----------------------------|------------------------------------------|
 B-|----------------------------|------------------------------------------|
 G-|-----------------5--4-------|--5-----4---------------------------------|
 D-|------------------------7---|-----7-----5/7---5------------------------|
 A-|----------------------------|----------------------6p5p3-----5-----3~--|
 E-|----------------------------|-----------------------------5-----5------|

[Fsus2] [C]  
 
 e-|---------------------------|------------12--------------|
 B-|---------------------------|-15---b(17)--------(17)r15--|
 G-|--------------------12--12-|----------------------------|
 D-|---------------------------|----------------------------|
 A-|---------------------------|----------------------------|
 E-|---------------------------|----------------------------|

[Fmaj7]  
 
 e-|------------------------------|------------------------------------------|
 B-|-----13-15-15b(17)~---r15-----|-------------------13-----15b(17)13-15----|
 G-|--12-----------------------12-|-12~-------12/14-------14--------------14-|
 D-|------------------------------|------------------------------------------|
 A-|------------------------------|------------------------------------------|
 E-|------------------------------|------------------------------------------|

[Am]  
 
 e-|---------------------------------|-----5-------------------------|
 B-|-13-15--15b(17)r15p13------------|---5----8----------------------|
 G-|----------------------14---------|-x--------7b(9)~-------7--5\4--|
 D-|---------------------------------|-------------------------------|
 A-|---------------------------------|-------------------------------|
 E-|---------------------------------|-------------------------------|

[G] [F]  
 
 e-|-----------------------------|-------------------------------------------|
 B-|-----------------------------|-------------------------------------------|
 G-|--5/7~----------5-4---5---4--|-----------------------5-----5-7b(9)r7p5---|
 D-|--------------------7---7----|-5--7----------------5---7---------------7-|
 A-|-----------------------------|-------6p5p3---3-5/7-----------------------|
 E-|-----------------------------|-------------5-----------------------------|

[Am7]  
 
 e-|-------------------------------|----------------------------|
 B-|----------------------15b(17)~-|--------------------13-15---|
 G-|-------------------------------|-------------12/14----------|
 D-|-------------------------------|----------------------------|
 A-|-------------------------------|----------------------------|
 E-|-------------------------------|----------------------------|

[F] [Am7]  
 
 e-|-----------------------------|---------------------------------|
 B-|-15-b(17)r15p13-15~----------|-------------------------------8-|
 G-|-----------------------------|-5-7--7b(9)~------------7b(9)----|
 D-|--------------------------7--|---------------------------------|
 A-|-----------------------------|---------------------------------|
 E-|-----------------------------|---------------------------------|

[Bb] [Am7]  
 
 e-|------------------------------|----------------------------|
 B-|-8--6--8p6p5-h6--6-5h6p5----5-|----------------------------|
 G-|--------------------------7---|-7b(9)------r7p5---5-7-7----|
 D-|------------------------------|-----------------7----------|
 A-|------------------------------|----------------------------|
 E-|------------------------------|----------------------------|

[Gsus4] [C]  
 
 e-|-------------------------------|--------------------------||
 B-|-------------------------------|--------------------------||
 G-|------b(9)r7p5-7---p5p4----h5--|--------------------------||
 D-|-------------------------------|--------------------------||
 A-|-------------------------------|--------------------------||
 E-|-------------------------------|--------------------------||

VERSE:
[C]When you get home babe, gonna light y[Fmaj7]our fire
All day I'[Am]ve been thinking [G]about you, your[F] my one desire
Gonn[C]a wrap my arms around you, and hold you n[Fmaj7]ext to me
Oh, baby wa[Am]nna taste your lips, I [Gadd9]wanna be your fant[F]asy
I wanna kiss yo[Am7]u all over, all over[F] again
[Am]I wanna kiss you all ov[Bb]er
[Am7]Till the night[Gsus4] closes in, till t[G]he night[Csus2] closes in.
[Csus2]I dont know what I'd[Fsus2] do without you [F]babe, dont know where I'd be
You're not[Am] just another lover yo[G5]u mean everything to [F]me
Eve[Csus2]rytime I'm wit[C]h you baby, I [Fsus2]cant believe it's true
When you[Am]r laying in my ar[G]ms and you do the things yo[Fsus2]u do
I took a [Am]heavenly ride through out [Fsus2]silence
I knew the [Am]moment had arriv[Bbsus2]ed
For [Am]killing the past and [Gsus4]coming back to lif[Csus2]e.
GUITAR SOLO:
 
 e:------------------------------------------------------------------------|
 B:-----------8---------------------------8--10--10b13==r10--8--10---------|
 G:-----7b9===---b9r7--5-----5--7b9===-7---------------------------9p7--5--|
 D:--5--------------------7------------------------------------------------|
 A:------------------------------------------------------------------------|
 E:------------------------------------------------------------------------|
 --------------------------------------------------------------------------|
 --------------------10--8-------------------------------------------------|
 -----5--h7-----7b9---------9--9s7--5--7b8r------------5--7-----5--7b9-----|
 --7-----------------------------------------7--5--h7--------7-------------|
 --------------------------------------------------------------------------|
 --------------------------------------------------------------------------|
 --------------------------------------------------|--3/8--10--10b12--15---|
 ------------------8--5----------------------------|-----------------------|
 --7p5-----5--7b9--------7b8--5-----7=--5--7b--/0--|-----------------------|
 -------7------------------------7-----------------|-----------------------|
 --------------------------------------------------|-----------------------|
 --------------------------------------------------|-----------------------|
 --b12rrrr10--8------8--/17--17--15--15--13--13--12h13p12------------------|
 ----------------10----------------------------------------13------11/15---|
 --------------------------------------------------------------12----------|
 --------------------------------------------------------------------------|
 --------------------------------------------------------------------------|
 --------------------------------------------------------------------------|
 --12\8----/20--20--20--19h20--20--19--19--17--17--19--15--17--12--15--10--|
 --------------------------------------------------------------------------|
 --------------------------------------------------------------------------|
 --------------------------------------------------------------------------|
 --------------------------------------------------------------------------|
 --------------------------------------------------------------------------|
 --12b--8----------8------10b12r10--8--10------8--8s0----------------------||
 ----------10--10-----10-------------------10------------------------------||
 --------------------------------------------------------------------------||
 --------------------------------------------------------------------------||
 --------------------------------------------------------------------------||
 --------------------------------------------------------------------------||

SECOND VERSE :
 
 -------------8/10--8-----|---------------13p10------10------------|-------|
 ----xxx-x----8/10--10----|----------------------13------13b15r13--|-------|
 ----xxx-x----------------|----------------------------------------|-------|
 ----xxx-x----------------|----------------------------------------|-------|
 -------------------------|----------------------------------------|-------|
 -------------------------|----------------------------------------|-------|

...silence | ...had begun |
 
 ----11p9p8--h9 9--9\2----------------|
 -------------------------------------|
 -------------------------------------|
 -------------------------------------|
 -------------------------------------|
 -------------------------------------|

...shining sun
I took a [Am]heavenly ride through our [Fsus2]silence.
I knew the [Am]waiting had begun[Bbsus2].
[Am]And headed straight... In[G]to the shining su[Csus2]n.
OUTRO SOLO:
 
 -----------------8--10--10/12===12\0--|-----------------------------------|
 -------8--8--10-----------------------|-----------------------------------|
 --0/7---------------------------------|--0--0--7b9r8b10r7b9r7p5h7p5--/9---|
 --------------------------------------|-----------------------------------|
 --------------------------------------|-----------------------------------|
 --------------------------------------|-----------------------------------|

^ hmmmm - a bit tricky! :)
- there's probably a better
way of writing this!
 
 ----------------------||--12--12--12==--12------12------12==--12--||-------|
 ------8---------------||--13--13--13==--13--13--13--13--13==--13--||-------|
 --10-----9\5-----5/9--||--12--12--12==--12--12--12--12--12==--12--||-------|
 --------------7-------||------------------------------------------||-------|
 ----------------------||------------------------------------------||-------|
 ----------------------||------------------------------------------||-------|
 release immdly ^ ^------- repeat this section 3 times ---------------|
 --/15--15------15------15--/17--17--15===--12--15--17b20===---\15h17------|
 ---13--13--13--13--13--13-------------------------------------------------|
 --------------------------------------------------------------------------|
 --------------------------------------------------------------------------|
 --------------------------------------------------------------------------|
 --------------------------------------------------------------------------|
 --b20==r17--15h17p15p12--15--12b13--10--10\8--8\7--7\5--5------7--8/10----|
 -----------------------------------------------------------10-------------|
 --------------------------------------------------------------------------|
 --------------------------------------------------------------------------|
 --------------------------------------------------------------------------|
 --------------------------------------------------------------------------|
 --8--7--8--7------7/8---------------------7--8----------------------------|
 --------------10-------8--8--8-----8--10--------0--0/8--------------------|
 --------------------------------9-----------------------9--7--7/9--5-5----|
 --------------------------------------------------------------------------|
 --------------------------------------------------------------------------|
 --------------------------------------------------------------------------|
 --------------------------------------------------------------------------|
 --------------------------------------------------------------------------|
 ------5-5---0-5-5---0-5-5---0-5-5--7/9--5--5--5--4--5--4------------------|
 --7-7-----7-------7-------7-------------------------------7--5--5/7--5----|
 --------------------------------------------------------------------------|
 --------------------------------------------------------------------------|
 ----------------------------|---------------------------------------------|
 ----------------------------|---------------------------------------------|
 ----------------------------|--9--9--9--9b10rrrr5--7p5--12\9--9--7/9\7p5\-|
 ----------------------------|---------------------------------------------|
 --7\5--3-----------3/5--p3--|---------------------------------------------|
 ----------5--3--5-----------|---------------------------------------------|
 -----------------------------------------8/10--8----------------5---------|
 ------------------------------------xxx--8/10--8-----5/8---5/8-----8--5h8-|
 --5---------------------------------xxx-----------------------------------|
 -----7------------------------------xxx-----------------------------------|
 --------7\5--3--5--5--5--3--3=====----------------------------------------|
 ----------------5--5--5--3--3=====----------------------------------------|
 --------------------------------------------------------------------------|
 -----5---------------------------5--6--8--(3)/5----------------0----------|
 --7-----5------------------5--5------------------5--0--5======\0----------|
 ----------------------5h7------------------------------5======\0----------|
 -------------------------------------------------------3======\-----------|
 --------------------------------------------------------------------------|

^ v.rapid slide from 3rd fret

Important: The song above is NOT stored on the Chordie server. The original song is hosted at www.guitaretab.com. Chordie works as a search engine and provides on-the-fly formatting. Chordie does not index songs against artists'/composers' will. To remove this song please click here.

Text color:
Chord color:
Chord grids: 
Font size:    
Page size: 

Am Am7 Bb Bbsus2 C Csus2 F Fmaj7 Fsus2 G G5 Gadd9 Gsus4
Rate #2 of 4 versions

Login - add to songbook

SHARE PAGE  




You need to log in to post comments