Guitar Tabs, Chords and Lyrics
Major upgrade!! After one year development the new version of Chordie is now online! Please give feedback.


Wait at Milano  Tim Barry

 
 ----------------------------------------------------------------------------

Wait at Milano - Tim Barry
 
 ----------------------------------------------------------------------------

Tabbed by: steve
Email:drtywrk_21@hotmail.com
Tuning: DGCFAd (he plays it a whole step down but you can play it standard if you want).
The entire song is played with the same rhythm, chords and picking pattern. Really
song though.
[C] [Am]  
 
 e|-----------------------------------------------------------------|
 B|----1-1---1-1---1--1---1-----1-----1-1---1-1--1--1---1-----1-----|
 G|----0-0---0-0---0--0---0-----0-----2-2---2-2--2--2---2-----2-----|
 D|----2-2-2-2-2---2--2-2-2-0h2-2-----2-2-2-2-2--2--2-2-2-0h2-2-----|
 A|--3-----------3---3--------------0-----------0--0----------------|
 E|-----------------------------------------------------------------|

[G/D] [F]  
 
 e|----2-2--2-2--2--2--2---2---------(0)0---0-0--0--0--0-----|
 B|----2-2--2-2--2--2--2---2----------1-1---1-1--1--1--1-----|
 G|--0----------0--0-----0------------2-2-2-2-2--2--2--2-----|Then back into
 D|-------0-----------0--------------3----------3--3--2-0h2p0|the C
 A|----------------------------------------------------------|
 E|----------------------------------------------------------|

That's it. The whole song with some accompaniment from some other instruments. Let's see
i can remember all the lyrics.
Let that lonely feeling go (3x)
For just today
There ain't no roads here paved with gold (3x)
Anyway
Just keep on movin' on
Keep lookin til you're done
If settlin down's a waste of time
Then keep your pace
When you sleep at night alone (2x)
Below the stars and feeling old
it'll be okay, it'll be okay
If life feels like its too long
And its cadence is all wrong
Well keep your step in time
But change your way
Cant make everything right now
theres sense in slowing down
when you leave this world alone
what will you take
and if what you seek aint free then steal it
and if it aint neccessity you dont need it
just leave whats left
for who comes next
if i had words to comfort you id say them
id give you everything i got if you needed
go on west or come to me
just stay the same
dont ever change
| / slide up
| \ slide down
| h hammer-on
| p pull-off
| ~ vibrato
| + harmonic
| x Mute note
===============================================================================

Important: The song above is NOT stored on the Chordie server. The original song is hosted at www.guitaretab.com. Chordie works as a search engine and provides on-the-fly formatting. Chordie does not index songs against artists'/composers' will. To remove this song please click here.

Text color:
Chord color:
Chord grids: 
Font size:    
Page size: 

Am C F G/D
Rate #1 of 2 versions

Login - add to songbook

SHARE PAGE  



You need to log in to post comments