Guitar Tabs, Chords and Lyrics
Update 25:10. 13:00. Site is back up running again. Songbooks are recovered. Woring on getting search back up..


Home  Timber Timbre

Home by Timber Timbre
Tabbed out by David D. Woyke
daviddwoyke@gmail.com
Em, Em, Em, D, G, G, C, G x4
Hold G for eight quarter notes and start a beat early on the verse
VERSE 1:
[Em]Buckle back, rattle, si[D]gh
H[G]ome, I want to [C]be toni[G]ght
[Em]Timber shovel, lager gl[D]ass
H[G]ome, I want to [C]be ton[G]ight
[Em]Mother, father, sister, fr[D]ight.
H[G]ome, I want to [C]be toni[G]ght
[Em]Timber stairway, starling fi[D]ght
H[G]ome, I want to [C]be toni[G]ght
Hold the G for just four quarter notes and start a beat early again on the chorus
CHORUS:
[G]Home, I want to [D]be tonight.
And h[Am]ome I want to [Em]be tonight,
H[D]ome I want to g[D]et this right
And [C]I want to come back h[G]ome. x2
Hold G for eight quarter notes and start a beat early on the solo
SOLO:
Em, Em, Em, D, G, G, C, G x4
 
 -----------------------------------------------------------------------------|
 -7--5b---8---10------------------------------------------5--3----------------|
 -----------------5--0--4--5--4b------5--4--0--4h5--4--7--------4--4h5--4--0--|
 -----------------------------------------------------------------------------|
 -----------------------------------------------------------------------------|
 -----------------------------------------------------------------------------|
 -----------------------------------------------------------------------------|
 -7-5-8--8-8-8-7-8------------------------------------------------------------|
 --------------------4-4-4-4-4h5-4-0---4-4-4-4-4h5-4-2----0-0-0-0-0h2-0-0-----|
 -----------------------------------------------------------------------------|
 -----------------------------------------------------------------------------|
 -----------------------------------------------------------------------------|

Hold the G for just four quarter notes and start a beat early again on the verse
VERSE 2:
[Em]Boot shellac, blue-collar sl[D]ack
H[G]ome, I want to [C]be to[G]night
[Em]Proudly slayed and wicked wh[D]ite
[G]Home, I want to [C]be toni[G]ght
[Em]Magazine, love letter, li[D]ght
H[G]ome, I want to [C]be toni[G]ght
[Em]Wait you must, you won't, you m[D]ight
H[G]ome, I want to [C]be ton[G]ight
Hold the G for just four quarter notes and start a beat early again on the chorus
CHORUS:
[G]Home, I want to [D]be tonight.
And h[Am]ome I want to [Em]be tonight,
H[D]ome I want to g[D]et this right
And [C]I want to come back h[G]ome. x3
LAST CHORUS:
[G]Home, I want to [D]be tonight.
And h[Am]ome I want to [Em]be tonight,
H[D]ome I want to g[D]et this right
And [C]I want to come back, [C]and I wanna come back h[G]ome.

Important: The song above is NOT stored on the Chordie server. The original song is hosted at www.guitaretab.com. Chordie works as a search engine and provides on-the-fly formatting. Chordie does not index songs against artists'/composers' will. To remove this song please click here.

Text color:
Chord color:
Chord grids: 
Font size:    
Page size: 

Am C D Em G
Rate #0 of 3 versions

Jango Player

Login - add to songbook

SHARE PAGE  




You need to log in to post comments