Guitar Tabs, Chords and Lyrics
Major upgrade!! After one year development the new version of Chordie is now online! Please give feedback.


Break of Day   Tina Dickow

 
 --0-----0--|
 --0-----0--|
 --7-----1--|
 --0-----0--|
 --9-----2--|
 --9-----2--|

 


 


 Pre-Chorus: (D UUD UUD DU D UUD)


 


 --0--


 --0--


 [--4--]--0--


 [--5--]  


 [--5--]  


 Chorus (played twice) - (D UUD UUD for each):


 


 

 
 --0----0----0----0--|
 --0----0----0----0--|
 --7----4----6----4--|
 --0----0----0----0--|
 --9----5----7----5--|
 --9----5----7----5--|

 


 


 Bridge (D UUD UUD DU for each below - if one chord is held for two counts in the song,


 i wrote the chord twice - therefore, that strumming pattern goes for each one: i.e. strum


 for 004055, then again for same, then strum for 000022, and again for same, then strum


 004055, and again for same )


 

 
 --0----0----0----0----0----0--| * = end strum on down (don't do last UUD DU)
 --0----0----0----0----0----0--|
 --4----4----0----0----4----4--|
 --0----0----0----0----0----0--|
 --5----5----2----2----5----5--|
 --5----5----2----2----5----5--|


Important: The song above is NOT stored on the Chordie server. The original song is hosted at www.guitaretab.com. Chordie works as a search engine and provides on-the-fly formatting. Chordie does not index songs against artists'/composers' will. To remove this song please click here.

This song is displayed as text-only. Transposing and tuning is only available for chordpro-songs.
Rate #2 of 2 versions

Jango Player

Login - add to songbook

SHARE PAGE  




You need to log in to post comments