Guitar Tabs, Chords and Lyrics
Server problems seems to be fixed. Chordie has been experiencing problems with songs disappearing. These issues now seems to be fixed, but still verifying the fix. If you find anything strange, please email admin@chordie.com.


All of My Life  Todd Snider

All of My Life by Todd Snider
chords
G : 320003 D : x00232 C : x32010
D* : x54030 Cm : x35543 A : x0222x
Capo 2nd Fret
Intro:
[G] ___ ___ ___ [D] ___ [G]___ ___ ___ ___ [C] ___
| | | | | | | | | | | | | | | | | |
 
 |-------------------|--------------|--------3-----------|--------------|
 |------0------------|-------3------|--------------------|--------------|
 |-----------0----0--|------------0-|------0------0----0-|----0--0----0-|
 |----0--------------|----0-----0---|---0-------0--------|----------2---|
 |--------------2----|-0------------|----------------0---|-3------------|
 |-3-------3---------|--------------|-3------------------|--------------|

[G] ___ ___ ___ ___ [D] ___ ___ ___ ___ [G] ___ ___ ___ ___ ___
| | | | | | | | | | | | | | | | | | | | | | | | | |
 
 |--------------------|--------------------|--------------------|------|
 |--------0-----------|--------3-----------|------0---------1---|------|
 |------0------0----0-|------2----2--------|--------0---------0-|------|
 |---0----------------|---0---------0----0-|---0---------2------|---0--|
 |----------------2---|-0------------------|-----------3--------|------|
 |-3---------3--------|----------------0---|-3------------------|-3----|

[G]Driving all day we [D]both said nothing
[G]You threw your face in a [C]magazine
[G]I tuned in to the ol[D]dies station
[C]Flew away in a [D]time machine
[C]This world is [D]so amazing
[G]The sun is shining and [C]it's raining too
[G]I waited [D]all my life for [G]you[C] [G]
I don't mind sometimes not talking
Sometimes there ain't a thing to say
Anyway I know what you're thinking
And I kinda like it when you think that way
I think I'll just keep on driving
Anywhere will do
I waited all my life for you
[C]All this time I [G]knew you were out there
[Cm]All this time I knew some[A]day I'd find you [D]somewhere
(harmonica break)
G D* G C G D C D* C D G C G D G C G
Some people tell you everything they think of
Say yes I will and then they never do
Sometimes I gotta ask you to speak up
Everything you say is true
Say you'll be mine forever
Never leave me blue
I waited all my life for you
I waited all my life for you

Important: The song above is NOT stored on the Chordie server. The original song is hosted at www.guitaretab.com. Chordie works as a search engine and provides on-the-fly formatting. Chordie does not index songs against artists'/composers' will. To remove this song please click here.

Text color:
Chord color:
Chord grids: 
Font size:    
Page size: 

A C Cm D G
Rate #1 of 4 versions

Login - add to songbook

SHARE PAGE  



You need to log in to post comments