Guitar Tabs, Chords and Lyrics
Major upgrade!! After one year development the new version of Chordie is now online! Please give feedback.


Packing for the Crash  Tom McRae

By Tom McRae
*****CAPO 1*****
Chords:
Fsus2- 133010
C- x32010
Em- 022000
G- 320033
INTRO
This is kinda like the strumming what you should be doing throughout the intro and
the verses... it varies a little but this is the basic idea...
[Fsus2] [C]  
 
 E-----------------------------------------------------------------|
 B-----------------------------------------------------------------|
 G--h-----h-----h---h-----h-----h---h-----h-----h---h-----h-----h--|
 D-2-3-3-2-3-3-2-3-2-3-3-2-3-3-2-3-0-2-2-0-2-2-0-2-0-2-2-0-2-2-0-2-|
 A-3-3-3-3-3-3-3-3-3-3-3-3-3-3-3-3-3-3-3-3-3-3-3-3-3-3-3-3-3-3-3-3-|
 E-1-1-1-1-1-1-1-1-1-1-1-1-1-1-1-1---------------------------------|

[Fsus2]  
 
 E-----------------------------------------------------------------|
 B-----------------------------------------------------------------|
 G--h-----h-----h---h-----h-----h---h-----h-----h---h-----h-----h--|
 D-2-3-3-2-3-3-2-3-2-3-3-2-3-3-2-3-2-3-3-2-3-3-2-3-2-3-3-2-3-3-2-3-|
 A-3-3-3-3-3-3-3-3-3-3-3-3-3-3-3-3-3-3-3-3-3-3-3-3-3-3-3-3-3-3-3-3-|
 E-1-1-1-1-1-1-1-1-1-1-1-1-1-1-1-1-1-1-1-1-1-1-1-1-1-1-1-1-1-1-1-1-|

[C]  
 
 E---------------------------------|
 B---------------------------------|
 G--h-----h-----h---h-----h-----h--|
 D-0-2-2-0-2-2-0-2-0-2-2-0-2-2-0-2-|
 A-3-3-3-3-3-3-3-3-3-3-3-3-3-3-3-3-|
 E---------------------------------|

[Fsus2]  
 
 E-----------------------------------------------------------------|
 B-----------------------------------------------------------------|
 G--h-----h-----h---h-----h-----h---h-----h-----h---h-----h-----h--|
 D-2-3-3-2-3-3-2-3-2-3-3-2-3-3-2-3-2-3-3-2-3-3-2-3-2-3-3-2-3-3-2-3-|
 A-3-3-3-3-3-3-3-3-3-3-3-3-3-3-3-3-3-3-3-3-3-3-3-3-3-3-3-3-3-3-3-3-|
 E-1-1-1-1-1-1-1-1-1-1-1-1-1-1-1-1-1-1-1-1-1-1-1-1-1-1-1-1-1-1-1-1-|

I'm packing for I'm packing for the
[C]  
 
 E---------------------------------|
 B---------------------------------|
 G--h-----h-----h---h-----h-----h--|
 D-0-2-2-0-2-2-0-2-0-2-2-0-2-2-0-2-|
 A-3-3-3-3-3-3-3-3-3-3-3-3-3-3-3-3-|
 E---------------------------------|

crash
[Em] Solid walls will [C]crack tonight[Em], solid walls are gonna [Fsus2]fall down
[Em] And this is not any [C]golden age we lost, any g[Em]olden age we lost
We broke it [Fsus2]here[G]
[Fsus2] I'm packing for I'm packing for the [C]crash
[Fsus2] I'm packing for I'm packing for the [C]crash
[Em] Another day and another [C]scar will fade
But a[Em]nother scar will take this ones [Fsus2]place[G]
[Fsus2] I'm packing for I'm packing for the [C]crash
[Fsus2]Sudden pressure we [C]fall through the floor
And [Fsus2]kill this moment be[C]fore it gets born and I'm not [Fsus2]here now[G]
[Fsus2] I'm packing for I'm packing for the [C]crash
[Fsus2] Sudden pressure we [C]fall through the floor
And [Fsus2]kill this moment be[C]fore it takes hold
And then a bit of wailing over the Fsus2/C stuff before ending on... C.
Any comments (though please no banter about sorting oneself out before something nasty
happens to the stock market...) to ihateibiza@hotmail.com

Important: The song above is NOT stored on the Chordie server. The original song is hosted at www.guitaretab.com. Chordie works as a search engine and provides on-the-fly formatting. Chordie does not index songs against artists'/composers' will. To remove this song please click here.

Text color:
Chord color:
Chord grids: 
Font size:    
Page size: 

C Em Fsus2 G
Rate #2 of 3 versions

Login - add to songbook

SHARE PAGE  



You need to log in to post comments