Guitar Tabs, Chords and Lyrics
Server problems seems to be fixed. Chordie has been experiencing problems with songs disappearing. These issues now seems to be fixed, but still verifying the fix. If you find anything strange, please email admin@chordie.com.


Change of Heart  Tom Petty and the Heartbreakers

 
 ---------------------------------------------------------------------------

Change Of Heart - Tom Petty and the Heartbreakers
 
 ---------------------------------------------------------------------------

Tabbed by: maguri
Tuning: Standard
Tom Petty and the Heartbreakers
Change Of Heart (1982)
(Petty)
From: "Long After Dark"
 
 ---------------------------------------------------------------------------

CHORDS
Am/G [E-A-D-G-B-E]3-x-2-2-1-0
G/F 1-x-0-0-0-x
 
 ---------------------------------------------------------------------------

INTRO/VERSE/CHORUS (only first two bars)
[C] [G] [G] [C] [G] [F] [C] [G] [G] [C] [G] [G] 
[1] [+] [2] [+] [3] [+] [4] [+] [1] [+] [2] [+] [3] [+] [4] [+] [1] [+] [2] [+] [3] [+] [4] [+] [1] [+] [2] [+] [3] [+] [4] [+]  
 
 e|3-----3-3-------|--3-3---1-------|3-----3-3-------|--3-3---3-------|
 B|1-----3-3-------|--1-3---1-------|1-----3-3-------|--1-3---3-------|
 G|0-----0-0-------|--0-0---2-------|0-----0-0-------|--0-0---0-------|
 D|2-------0-------|--2-0---3-------|2-------0-------|--2-0---0-------|
 A|3-------x-------|--3-x---3-------|3-------x-------|--3-x---x-------|
 E|--------3-------|----3---1-------|----------------|----3---3-------|

˅ ˄ ˅ ˄ ˅ ˅ ˅ ˄ ˅ ˄ ˅ ˅
BRIDGE (part)
[F] [G] [Gsus4] 
[1] [+] [2] [+] [3] [+] [4] [+] [1] [+] [2] [+] [3] [+] [4] [+] [1] [+] [2] [+] [3] [+] [4] [+] [1] [+] [2] [+] [3] [+] [4] [+]  
 
 e|----------------|----------------|3---------------|3-3-3-3-3-------|
 B|1-------------0-|----------------|0---------------|1-1-1-1-1-------|
 G|2---------------|-2--------------|0---------------|0-0-0-0-0-------|
 D|3---------------|----------------|0---------------|0-0-0-0-0-------|
 A|3---------------|----------------|x---------------|x-x-x-x-x-------|
 E|1---------------|----------------|3---------------|3-3-3-3-3-------|

(break)
 
 ---------------------------------------------------------------------------

INTRO
| C G | C G F | C G | C G | (see above)
C G | C G F |
Well I fought for you
C G | C G |
I fought too hard
C G | C G F |
To do it all again babe
C G | C G | C G |
It's gone too far
[Am] You never needed me
G F G Gsus4 (= BRIDGE (part))
You only wanted me around it gets me down
| C G | C G F |
There's been a change
Yeah [Am]there's been a change of [G]heart
| C G | C G F |
Said there's been a change
You [Am]push just a little too far
You [Am/G]make it just a little too hard
F | G/F | F | G/F |
There's been a change of heart
C G | C G F |
I'll get over you
C G | C G |
It won't take long
C G | C G F |
I've stood in yer gallery
C G | C G |
Seen what's hangin' from the walls
[Am] You were the moon and sun
G F G Gsus4 (= BRIDGE (part))
You?re just a loaded gun now, it gets me down
| C G | C G F |
There's been a change
Yeah [Am]there's been a change of [G]heart
| C G | C G F |
Said there's been a change
You [Am]push just a little too far
You [Am/G]make it just a little too hard
F | G/F | F | G/F |
There's been a change of heart
[G] Whoa [C]yeah,[G] oh [C]boy
[Am] Looks like we [G]finally found the [F]turning [C]point
[G] Oh [C]me,[G] oh [C]my
[Am] Looks like it's [G]time for me to [F]kiss it goodbye
Yeah [G]kiss it goodbye
| C G | C G F |
There's been a change
Yeah [Am]there's been a change of [G]heart
| C G | C G F |
Said there's been a change
You [Am]push just a little too far
You [Am/G]make it just a little too hard
F | G/F | F | G/F |
There's been a change of heart
| F | G/F | F | G/F |
(repeat and fade)

Important: The song above is NOT stored on the Chordie server. The original song is hosted at www.guitaretab.com. Chordie works as a search engine and provides on-the-fly formatting. Chordie does not index songs against artists'/composers' will. To remove this song please click here.

Text color:
Chord color:
Chord grids: 
Font size:    
Page size: 

Am C F G Gsus4
Rate #1 of 2 versions

Login - add to songbook

SHARE PAGE  




You need to log in to post comments