Guitar Tabs, Chords and Lyrics
Server problems seems to be fixed. Chordie has been experiencing problems with songs disappearing. These issues now seems to be fixed, but still verifying the fix. If you find anything strange, please email admin@chordie.com.


I Should Have Known It   Tom Petty and the Heartbreakers

 
 e|------------------------------------------------------------|
 B|------------------------------------------------------------|
 G|------------------0--3b--0--------------------0-------------|
 D|-------------0--3------------------------0--3---------------|
 A|-----3---3-----------------------3---3----------------------|
 E|---6---6---3-------------------6---6---3--------------------|

 


 


 Intro: do the "G" riff 5x's


 


 "G" riff during verses


 


 I shoulda known it


 I shoulda seen


 Leave it to you


 To treat me mean


 


 

 
 C6-C6-B6-Bb6, C6-C6-B6-Bb6

 


 Every promise was just a runaround


 


 "G" riff


 I shoulda known it


 Yeah you're gonna let me down


 


 C-D C-D C Bb-C(3x)


 Well it's over now you see


 spoken:


 It's the last time you're gonna hurt me


 


 

 
 e|---------------------------------------------------|
 B|---------------------------------------------------|
 G|---3-----------------------------------------------|
 D|-----5-3----5-3------3-----------------------------|
 A|---------5------5-3----5-3-------------------------|
 E|---------------------------6--3--------------------|

 


 


 "G" riff during verses


 I shoulda known it


 Hard to believe


 It was all right there


 In front of me


 


 [C6-C6-B6-Bb6]Sold down the river


 [C6-C6-B6-Bb6]Left for dead


 


 "G" riff


 Yeah you're putting ideas


 In another man's head


 


 C-D C-D C Bb-C(3x)


 And it's over now you see


 spoken:


 It's the last time you're gonna hurt me


 


 Key change.


 

 
 e|-------------------------------------------------|
 B|-------------------------------------------------|
 G|-------------------------------------------------|
 D|------------------0-3-0--------------------------|
 A|---------------5--------3-0----------------------|
 E|---1b-3--1b-3------------------------------------|

 


 


 [C6-C6-B6-Bb6]Thanks for nothin'


 [C6-C6-B6-Bb6]Yeah thanks a lot


 


 "G" riff


 Go ahead baby


 Take all I got


 


 C-D C-D C Bb-C(3x)


 And it's over now ya see


 spoken:


 It's the last time you're gonna hurt me


 


 

 
 e|---------------------------------------------------|
 B|---------------------------------------------------|
 G|---3-----------------------------------------------|
 D|-----5-3----5-3------3-----------------------------|
 A|---------5------5-3----5-3-------------------------|
 E|---------------------------6--3--------------------|
 G-F-G, C5-C5-C5-Bb-C5 (repeat pattern for a while, solo over it)


Important: The song above is NOT stored on the Chordie server. The original song is hosted at www.guitaretab.com. Chordie works as a search engine and provides on-the-fly formatting. Chordie does not index songs against artists'/composers' will. To remove this song please click here.

This song is displayed as text-only. Transposing and tuning is only available for chordpro-songs.
Rate #1 of 2 versions

Login - add to songbook

SHARE PAGE  



You need to log in to post comments