Guitar Tabs, Chords and Lyrics
Server problems seems to be fixed. Chordie has been experiencing problems with songs disappearing. These issues now seems to be fixed, but still verifying the fix. If you find anything strange, please email admin@chordie.com.


Helt galen i dig  Tomas Ledin

Songwriter: Tomas Ledin
Tabbed by: Jeppe
Intro 1
 
 E||---------------------------|-----------------------|
 B||--------0g2s--0----2-------|--------4--5--------L--|
 G||----------2---2----2-------|--------4--6--------L--|
 D||-----2----2---2----2-------|--------6--6--------L--| x 2
 A||--0---------------------0--|-----6-----4--------L--|
 E||---------------------------|--4--------------------|

Intro/Chorus
Helt [Asus2]gaaale[B/G#]n, ga[G#m]len i d[C#m]ig
I ditt[Asus2] himmelska [B/G#]leende[G#m], i ditt s[C#m]kratt
Helt [Asus2]gaaale[B/G#]n, ga[G#m]len i d[C#m]ig
Ja att [Asus2]vara förälskad[B], det måste kännas så här
Riff 1
 
 E||------------------------|---------------------|
 B||------------------------|---------5--------L--|
 G||--6--6--6--4----6----4--|--L------6--------L--| x 2
 D||--7--7--7--7----7----6--|--L------6--------L--|
 A||--7--7--7--7----7----6--|--L------------------|
 E||------------------------|---------------------|

Verse 1 (Play riff 1 during the verse)
[A] Hade inga drömmar, ingen [G#m]önskan inom [C#m]mig
Tog [A]dagen lite som den [G#m]kom[C#m]
[A] Hade kanske slängt n[G#m]yckeln till mig s[C#m]jälv
Ja, det [A]kändes nog lite [Bsus4]
[A] Hade inga planer, ingen [G#m]framtid i min [C#m]blick
Ingen [A]längtan som loc[G#m]kade[C#m]
[A] Var nog inte nere, jag [G#m]var nog inte [C#m]alls
Jag var [A]bara en man på [B]väg
Chorus
Nu är jag helt[Asus2] gaaal[B/G#]en, g[G#m]alen i [C#m]dig
I ditt[Asus2] himmelska [B/G#]leende[G#m], i ditt s[C#m]kratt
Helt [Asus2]gaaale[B/G#]n, ga[G#m]len i d[C#m]ig
Ja att [Asus2]vara förälskad[B], det måste kännas så här
Riff 1
 
 E||------------------------|---------------------|
 B||------------------------|---------5--------L--|
 G||--6--6--6--4----6----4--|--L------6--------L--| x 2
 D||--7--7--7--7----7----6--|--L------6--------L--|
 A||--7--7--7--7----7----6--|--L------------------|
 E||------------------------|---------------------|

Verse 2
[A] Visst fanns det nätter när [G#m]sömnen inte [C#m]kom
Jag låg [A]vaken och vän[G#m]tade[C#m]
[A] Säkert tärde en [G#m]saknad inom [C#m]mig
Men det [A]var inget jag tänkte [B]
Nej det va[A]r tidiga morgnar, a[G#m]lltför långa d[C#m]ar
Ändå [A]fick jag ingenting [G#m]gjort[C#m]
[A] Var väl nöjd, ja, jag [G#m]trodde det i alla [C#m]fall
Tills den [A]dagen du log mot [B]mej
Chorus
Nu är jag helt[Asus2] gaaal[B/G#]en, g[G#m]alen i [C#m]dig
I ditt[Asus2] himmelska [B/G#]leende[G#m], i ditt s[C#m]kratt
Helt [Asus2]gaaale[B/G#]n, ga[G#m]len i d[C#m]ig
Ja att [Asus2]vara förälskad[B], det måste kännas så här
Riff 1
 
 E||------------------------|---------------------|
 B||------------------------|---------5--------L--|
 G||--6--6--6--4----6----4--|--L------6--------L--| x 2
 D||--7--7--7--7----7----6--|--L------6--------L--|
 A||--7--7--7--7----7----6--|--L------------------|
 E||------------------------|---------------------|

Bridge
[A] Hur kan du locka så mycket gl[G#m]ädje,[A] ur mig varje d[G#m]ag
[A] Hur kan du få mig att k[G#m]änna sån lust, [A]till att leva, [A]till att älska
Till att [B]möta varje ny dag med dig
Riff 1
 
 E||------------------------|---------------------|
 B||------------------------|---------5--------L--|
 G||--6--6--6--4----6----4--|--L------6--------L--| x 4
 D||--7--7--7--7----7----6--|--L------6--------L--|
 A||--7--7--7--7----7----6--|--L------------------|
 E||------------------------|---------------------|

Outro chorus
Helt [Asus2]gaaale[B/G#]n, ga[G#m]len i d[C#m]ig
I ditt[Asus2] himmelska [B/G#]leende[G#m], i ditt s[C#m]kratt
Helt [Asus2]gaaale[B/G#]n, ga[G#m]len i d[C#m]ig
Ja att [Asus2]vara förälskad[B], det måste kännas så här

Important: The song above is NOT stored on the Chordie server. The original song is hosted at www.guitaretab.com. Chordie works as a search engine and provides on-the-fly formatting. Chordie does not index songs against artists'/composers' will. To remove this song please click here.

Text color:
Chord color:
Chord grids: 
Font size:    
Page size: 

A Asus2 B B/G# Bsus4 C#m G#m
Rate #1 of 3 versions

Login - add to songbook

SHARE PAGE  



You need to log in to post comments