Guitar Tabs, Chords and Lyrics
Major upgrade!! After one year development the new version of Chordie is now online! Please give feedback.


Black Oblivion  Tony Iommi

TONY IOMMI IS THE GUITARIST OF BLACK SABBATH. HE HAS BEEN WITH THEM FROM 1969 TO PRESENT.
IN 2001-2002 HE RECORDED HIS DEBUT SOLO ALBUM CALLED "IOMMI''. HE PLAYS A LEFT-HANDED
GUITAR, AND IS MOST FAMOUS FOR RIFFS SUCH AS "PARANOID'' "SWEETLEAF'' AND " NIB''. HIS
FIRST SOLO ALBUM FEATURES HENRY ROLLINS, SKIN, DAVE GROHL, BILLY IDOL, OZZY OSBOURNE AND
OTHERS.
 
 -----------------------------------------------------------------------------

Tuning Info: Tune to C#,Alegro, 120 beats/min. 4/4 count
Note: Lyrics may not align with music and multiple guitar parts may not
align due to space constraints.
(f)
E E G G/A A(\E)
 
 ---------------------------------------------|
 ---------------------------------------------|
 ---------------------------------------------|
 -9-9--(xx)--12-12/14-14(\9)------------------|
 -7-7--(xx)--10-10/12-12(\7)--5--5------------|
 -0-0--(xx)------------------7--7--5-3p0------|

E E G G/A A(\E)
 
 ------------------------------------------|
 ------------------------------------------|
 ------------------------------------------|
 -9-9--(xx)--12-12/14-14(\9)--------5------|
 -7-7--(xx)--10-10/12-12(\7)--5--5h7--7----|
 -0-0--(xx)------------------7--7----------|

E E G G/A A(\E)
 
 ------------------------------------------|
 ------------------------------------------|
 ------------------------------------------|
 -9-9--(xx)--12-12/14-14(\9)---------------|
 -7-7--(xx)--10-10/12-12(\7)--5--5---------|
 -0-0--(xx)------------------7--7--5-3p0---|

E E G G/A A(\E)
 
 ------------------------------------------|
 ------------------------------------------|
 ---------------------------------(5/)-7~~-|
 -9-9--(xx)--12-12/14-14(\9)------(5/)-7~~-|
 -7-7--(xx)--10-10/12-12(\7)--5------------|
 -0-0--(xx)------------------7--7----------|

G\E E D D/E E G\E E D D/E E
 
 -----------------------------------------------------------------------|
 -----------------------------------------------------------------------|
 -----------------------------------------------------------------------|
 -12\9-9-7-7/9-9------------------12\9-9--7-7/9-9-----------------------|
 -10\7-7-5-5/7-7------------------10\7-7--5-5/7-7-----------------------|
 ----------------0-3-5s^(6~)-3~---------------------0-3-5-6s^(6.5~)-3p0-|

D/E E\D D/E E G\E E D D/E E
 
 -----------------------------------------------------------------------------|
 -----------------------------------------------------------------------------|
 -----------------------------------------------------------------------------|
 -----------------------------------------12\9-9-7-7/9-9----------------------|
 -12/14-14\12--12/14-14-------------------10\7-7-5-5/7-7----------------------|
 -10/12-12\10--10/12-12--0-3-5s^(6~)-3~------------------0-3-5-6s^(6.5~)-3p0--|

You ask
G\E E D D/E E G\E E D D/E E
 
 -----------------------------------------------------------------------|
 -----------------------------------------------------------------------|
 -----------------------------------------------------------------------|
 -12\9-9-7-7/9-9------------------12\9-9--7-7/9-9-----------------------|
 -10\7-7-5-5/7-7------------------10\7-7--5-5/7-7-----------------------|
 ----------------0-3-5s^(6~)-3~---------------------0-3-5-6s^(6.5~)-3p0-|

me why I'll tell you die My head is full
D/E E\D D/E E G\E E D D/E E
 
 -----------------------------------------------------------------------------|
 -----------------------------------------------------------------------------|
 -----------------------------------------------------------------------------|
 -----------------------------------------12\9-9-7-7/9-9----------------------|
 -12/14-14\12--12/14-14-------------------10\7-7-5-5/7-7----------------------|
 -10/12-12\10--10/12-12--0-3-5s^(6~)-3~------------------0-3-5-6s^(6.5~)-3p0--|

of lies And I am beyond high
E E G G/A A(\E)
 
 ---------------------------------------------|
 ---------------------------------------------|
 ---------------------------------------------|
 -9-9--(xx)--12-12/14-14(\9)------------------|
 -7-7--(xx)--10-10/12-12(\7)--5--5------------|
 -0-0--(xx)------------------7--7--5-3p0------|

You don't know just what I'm
E E G G/A A(\E)
 
 ---------------------------------------------|
 ---------------------------------------------|
 ---------------------------------------------|
 -9-9--(xx)--12-12/14-14(\9)--------5---------|
 -7-7--(xx)--10-10/12-12(\7)--5--5h7--7-------|
 -0-0--(xx)------------------7--7-------------|

waiting for
E E G G/A A(\E)
 
 ---------------------------------------------|
 ---------------------------------------------|
 ---------------------------------------------|
 -9-9--(xx)--12-12/14-14(\9)------------------|
 -7-7--(xx)--10-10/12-12(\7)--5--5------------|
 -0-0--(xx)------------------7--7--5-3p0------|

Acid burns my skull as
E E G G/A A(\E)
 
 ---------------------------------------------|
 ---------------------------------------------|
 ---------------------------------(5/)-7~~----|
 -9-9--(xx)--12-12/14-14(\9)------(5/)-7~~----|
 -7-7--(xx)--10-10/12-12(\7)--5---------------|
 -0-0--(xx)------------------7--7-------------|

white as snow
E E G G/A A(\E)
 
 ---------------------------------------------|
 ---------------------------------------------|
 ---------------------------------------------|
 -9-9--(xx)--12-12/14-14(\9)------------------|
 -7-7--(xx)--10-10/12-12(\7)--5--5------------|
 -0-0--(xx)------------------7--7--5-3p0------|

Black Oblivion drags me
E E G G/A A(\E)
 
 ---------------------------------------------|
 ---------------------------------------------|
 ---------------------------------------------|
 -9-9--(xx)--12-12/14-14(\9)--------5---------|
 -7-7--(xx)--10-10/12-12(\7)--5--5h7--7-------|
 -0-0--(xx)------------------7--7-------------|

ever twords
E E G G/A A(\E)
 
 ---------------------------------------------|
 ---------------------------------------------|
 ---------------------------------------------|
 -9-9--(xx)--12-12/14-14(\9)------------------|
 -7-7--(xx)--10-10/12-12(\7)--5--5------------|
 -0-0--(xx)------------------7--7--5-3p0------|

I dream tomorrow till tomorrow
E E G G/A A(\E) E
 
 -----------------------------------------------|
 -----------------------------------------------|
 ---------------------------------(5/)-7~~--1---|
 -9-9--(xx)--12-12/14-14(\9)------(5/)-7~~--2---|
 -7-7--(xx)--10-10/12-12(\7)--5-------------2---|
 -0-0--(xx)------------------7--7-----------0---|

BRIDGE
 
 -----7-8--------------7-8--------------77-8--------------7-8----------|
 ---11----11-11------11----11-11------11-----11-11------11----11-11----|
 --9--------9--9----9--------9--9----9---------9--9----9--------9--9---|
 ----------------------------------------------------------------------|
 ----------------------------------------------------------------------|
 ----------------------------------------------------------------------|

 
 -----7-8--------------7-8--------------77-8--------------7-8----------|
 ---11----11-11------11----11-11------11-----11-11------11----11-11----|
 --9--------9--9----9--------9--9----9---------9--9----9--------9--9---|
 ----------------------------------------------------------------------|
 ----------------------------------------------------------------------|
 ----------------------------------------------------------------------|

Voices tell me strike the match and burn it all to hell
Voices tell me I could watch, if I promise not to tell
[E] [G] [A] [E] [G] [A]  
 
 ------------------------------------------------------------|
 ------------------------------------------------------------|
 ------------------------------------------------------------|
 -7---12---14------------------9---12---114------------------|
 -5---10---12-12s^(14s`12)-10--7---10---112--12s^(14`12~)----|
 -0----------------------------0-----------------------------|

You don't know just where I want to go
[E] [G] [A] [E] [G] [A]  
 
 ------------------------------------------------------------|
 ------------------------------------------------------------|
 ------------------------------------------------------------|
 -7---12---14------------------9---12---114------------------|
 -5---10---12-12s^(14s`12)-10--7---10---112--12s^(14`12~\)---|
 -0----------------------------0-----------------------------|

The cross won't save you from my fallen soul
[F#] [F#]  
 
 -------------------------------------------------------------------|
 -------------------------------------------------------------------|
 ---------------------------------------------------7-7--9/11\(7)---|
 -------------------------3-------------------------7-7--9/11\(7)---|
 -4-4--4--3~~--2~~-0-2h3h4-4p2p0--4-4--4---3~~--2~~----9------------|
 -2-2-----------------------------2-2-------------------------------|

[F#] [F#]  
 
 -------------------------------------------------------------------|
 -------------------------------------------------------------------|
 ---------------------------------------------------11-9-10-11\(7)--|
 -------------------------3-------------------------11-9-10-11\(7)--|
 -4-4--4--3~~--2~~-0-2h3h4-4p2p0--4-4--4---3~~--2~~-----------------|
 -2-2-----------------------------2-2-------------------------------|
 -----7-8--------------7-8----------|
 ---11----11-11------11----11-11----|
 --9--------9--9----9--------9--9---|
 -----------------------------------|
 -----------------------------------|
 -----------------------------------|

[E]  
 
 -----------------------------------|
 -----------------------------------|
 -----------------------------------|
 -----------------------------------|
 --2--------------------------------|
 --0--------------------------------|

Drive slow motion firewall, candy apple fuse,
 
 ------12-13-----------------12-13-----------|
 ----16-----16---16--------16-----16---166---|
 --14---------14---14----14---------14----14-|
 --------------------------------------------|
 --------------------------------------------|
 --------------------------------------------|

[A] [A]  
 
 --------------------------------------------|
 --------------------------------------------|
 --------------------------------------------|
 --------------------------------------------|
 -7----------------------7-------------------|
 -5----------------------5-------------------|

Emotions are unattached as demons are amused.
[E] [G] [F#] [E] [G] [F#]  
 
 -----------------------------------------------------|
 -----------------------------------------------------|
 -----------------------------------------------------|
 -----------------------------------------------------|
 -14--17--16----------------14--17--16----------------|
 -12--15--14--7s^(8)-7~-0---12--15--14--77s^(8)-7~-0--|

[E] [G] [F#] [E] [G] [F#]  
 
 -----------------------------------------------------|
 -----------------------------------------------------|
 -----------------------------------------------------|
 -----------------------------------------------------|
 -14--17--16----------------14--17--16----------------|
 -12--15--14--7s^(8)-7~-0---12--15--14--77s^(7)-7~~~--|

BRIDGE 2
 
 ------------------------------------------------------|
 ------------------------------------------------------|
 ----------7/12-12h14-14-14-14-14-14---122--14-14-14---|
 -(14\12)--7/12-12h14-14-14-14-14-14---122--14-14-14---|
 -(14\12)--0-----0--0--0--0--0--0--0----00---0--0--0---|
 ------------------------------------------------------|

[d] [u] [d] [u] [d] [u] [d] [u] [d] [u] 
 
 ------------------------------------------------------|
 ------------------------------------------------------|
 --7/12-12h14-14-14-14-14-14---12--14-14--14---5-7-5---|
 --7/12-12h14-14-14-14-14-14---12--14-14--14---5-7-5-7-|
 --0-----0--0--0--0--0--0--0----0---0--0---0---------7-|
 ------------------------------------------------------|

[d] [u] [d] [u] [d] [u] [d] [u] [d] [u] 
 
 ------------------------------------------------------|
 ------------------------------------------------------|
 --7/12-12h14-14-14-14-14-14---12--14-14--14-----------|
 --7/12-12h14-14-14-14-14-14---12--14-14--14-----------|
 --0-----0--0--0--0--0--0--0----0---0--0---0-----------|
 ------------------------------------------------------|

[d] [u] [d] [u] [d] [u] [d] [u] [d] [u] 
 
 ------------------------------------------------------|
 ------------------------------------------------------|
 --7/12-12h14-14-14-14-14-14---12--14-14--14---5-7-5---|
 --7/12-12h14-14-14-14-14-14---12--14-14--14---5-7-5-7-|
 --0-----0--0--0--0--0--0--0----0---0--0---0---------7-|
 ------------------------------------------------------|

[d] [u] [d] [u] [d] [u] [d] [u] [d] [u] 
 
 ------------------------------------------------------|
 ------------------------------------------------------|
 --7/12-12h14-14-14-14-14-14---12--14-14--14-----------|
 --7/12-12h14-14-14-14-14-14---12--14-14--14-----------|
 --0-----0--0--0--0--0--0--0----0---0--0---0-----------|
 ------------------------------------------------------|

[d] [u] [d] [u] [d] [u] [d] [u] [d] [u] 
 
 ------------------------------------------------------|
 ------------------------------------------------------|
 --7/12-12h14-14-14-14-14-14---12--14-14--14---5-7-5---|
 --7/12-12h14-14-14-14-14-14---12--14-14--14---5-7-5-7-|
 --0-----0--0--0--0--0--0--0----0---0--0---0---------7-|
 ------------------------------------------------------|

[d] [u] [d] [u] [d] [u] [d] [u] [d] [u] 
 
 ------------------------------------------------------|
 ------------------------------------------------------|
 --7/12-12h14-14-14-14-14-14---12--14-14--14-----------|
 --7/12-12h14-14-14-14-14-14---12--14-14--14-----------|
 --0-----0--0--0--0--0--0--0----0---0--0---0-----------|
 ------------------------------------------------------|

[d] [u] [d] [u] [d] [u] [d] [u] [d] [u] 
Family spins the circle,
 
 ------------------------------------------------------|
 ------------------------------------------------------|
 --7/12-12h14-14-14-14-14-14---12--14-14--14---5-7-5---|
 --7/12-12h14-14-14-14-14-14---12--14-14--14---5-7-5-7-|
 --0-----0--0--0--0--0--0--0----0---0--0---0---------7-|
 ------------------------------------------------------|

Nerves are[d] gr[u]owi[d]ng [u]col[d]d[u] [d] [u] [d] [u]
 
 ------------------------------------------------------|
 ------------------------------------------------------|
 --7/12-12h14-14-14-14-14-14---12--14-14--14-----------|
 --7/12-12h14-14-14-14-14-14---12--14-14--14-----------|
 --0-----0--0--0--0--0--0--0----0---0--0---0-----------|
 ------------------------------------------------------|

Shotgun to[d] th[u]e t[d]emp[u]le[d] [u] [d] [u] [d] [u]
 
 ------------------------------------------------------|
 ------------------------------------------------------|
 --7/12-12h14-14-14-14-14-14---12--14-14--14---5-7-5---|
 --7/12-12h14-14-14-14-14-14---12--14-14--14---5-7-5-7-|
 --0-----0--0--0--0--0--0--0----0---0--0---0---------7-|
 ------------------------------------------------------|

Nausea dow[d]n b[u]elo[d]w[u] [d] [u] [d] [u] [d] [u]
 
 ------------------------------------------------------|
 ------------------------------------------------------|
 --7/12-12h14-14-14-14-14-14---12--14-14--14-----------|
 --7/12-12h14-14-14-14-14-14---12--14-14--14-----------|
 --0-----0--0--0--0--0--0--0----0---0--0---0-----------|
 ------------------------------------------------------|

No more ta[d]lki[u]ng [d]bac[u]kwa[d]rds[u] [d] [u] [d] [u]
 
 ------------------------------------------------------|
 ------------------------------------------------------|
 --7/12-12h14-14-14-14-14-14---12--14-14--14---5-7-5---|
 --7/12-12h14-14-14-14-14-14---12--14-14--14---5-7-5-7-|
 --0-----0--0--0--0--0--0--0----0---0--0---0---------7-|
 ------------------------------------------------------|

Or fists t[d]o t[u]he [d]hea[u]rt[d] [u] [d] [u] [d] [u]
 
 ------------------------------------------------------|
 ------------------------------------------------------|
 --7/12-12h14-14-14-14-14-14---12--14-14--14-----------|
 --7/12-12h14-14-14-14-14-14---12--14-14--14-----------|
 --0-----0--0--0--0--0--0--0----0---0--0---0-----------|
 ------------------------------------------------------|

Blacklight[d] tr[u]ies[d] to[u] ca[d]ptu[u]re[d] [u] [d] [u]
 
 ------------------------------------------------------|
 ------------------------------------------------------|
 --7/12-12h14-14-14-14-14-14---12--14-14--14---5-7-5---|
 --7/12-12h14-14-14-14-14-14---12--14-14--14---5-7-5-7-|
 --0-----0--0--0--0--0--0--0----0---0--0---0---------7-|
 ------------------------------------------------------|

One more s[d]upe[u]rst[d]ar[u] [d] [u] [d] [u] [d] [u]
 
 -------------------------------|
 -------------------------------|
 -------------------------------|
 -------------------------------|
 -14------14---12---13---14-----|
 -12------12---10---11---12-----|

No more lines to cross
 
 ------------------------------------------------------|
 ------------------------------------------------------|
 --7/12-12h14-14-14-14-14-14---12--14-14--14-----------|
 --7/12-12h14-14-14-14-14-14---12--14-14--14-----------|
 --0-----0--0--0--0--0--0--0----0---0--0---0-----------|
 ------------------------------------------------------|

[d] [u] [d] [u] [d] [u] [d] [u] [d] [u] 
 
 ------------------------------------------------------|
 ------------------------------------------------------|
 --7/12-12h14-14-14-14-14-14---12--14-14--14---5-7-5---|
 --7/12-12h14-14-14-14-14-14---12--14-14--14---5-7-5-7-|
 --0-----0--0--0--0--0--0--0----0---0--0---0---------7-|
 ------------------------------------------------------|

[d] [u] [d] [u] [d] [u] [d] [u] [d] [u] 
 
 -------------------------------|
 -------------------------------|
 -------------------------------|
 -------------------------------|
 -14------14---12---13---14-----|
 -12------12---10---11---12-----|

No more lines I'm lost
LEAD (3:41)
 
 ------------------------------------------------------------------------------|
 -9~~~---7s/9--9-7-9-----------------------------------------------------------|
 -9~~~---7s/9--9-7-9-7p5----------7p5------------------------------------------|
 -9~~~---7s/9--9-7-9----7~-----5h7---7~----4-7p5p4-5p4-------------5-----------|
 -------------------------(5/)7--------5hh7-------7---7p5p3---3h5/7-7-5h7------|
 ----------------------------------------------------------3h5-----------------|

 
 ------------------------------------------------------|
 ------------------------------------------------------|
 --7/12-12h14-14-14-14-14-14---12--14-14--14-----------|
 --7/12-12h14-14-14-14-14-14---12--14-14--14-----------|
 --0-----0--0--0--0--0--0--0----0---0--0---0-----------|
 ------------------------------------------------------|

 
 -----------------------17p15-17p15-17p155-17~~-17p15-17^(19)-17p15-17-17~~--|
 ------8----------10/17------------------------------------------------------|
 -9~~-7-9p7\5~~--------------------------------------------------------------|
 ----------------------------------------------------------------------------|
 ----------------------------------------------------------------------------|
 ----------------------------------------------------------------------------|

 
 ------------------------------------------------------|
 ------------------------------------------------------|
 --7/12-12h14-14-14-14-14-14---12--14-14--14---5-7-5---|
 --7/12-12h14-14-14-14-14-14---12--14-14--14---5-7-5-7-|
 --0-----0--0--0--0--0--0--0----0---0--0---0---------7-|
 ------------------------------------------------------|

 
 -17p15-19^(21)-19p17-15-17-17~~-17p15-155p12--12--------------------------|
 --------------------------------------------15--15p12--12-----------------|
 -----------------------------------------------------14--14p12------------|
 --------------------------------------------------------------14p12-10~~--|
 --------------------------------------------------------------------------|
 --------------------------------------------------------------------------|

 
 -------------------------------------------|
 -------------------------------------------|
 -------------------------------------------|
 -------------------------------------------|
 -14---17--16---5---------------------------|
 -12---15--14---3---------------------------|

No more lines, I'm lost!
4:10
 
 --------------------------17-20^(24~~~)----|
 ------17-20p17--17~--17-19-----------------|
 -12/19--------19---19----------------------|
 -------------------------------------------|
 -------------------------------------------|
 -------------------------------------------|

[E] [G] [F#] [E] [G] [F#]  
 
 -----------------------------------------------------|
 -----------------------------------------------------|
 -----------------------------------------------------|
 -----------------------------------------------------|
 -14--17--16----------------14--17--16----------------|
 -12--15--14--7s^(8)-7~-0---12--15--14--77s^(8)-7~~~--|

[E] [G] [F#] [E] [G] [F#]  
 
 -----------------------------------------------------|
 -----------------------------------------------------|
 -----------------------------------------------------|
 -----------------------------------------------------|
 -14--17--16----------------14--17--16----------------|
 -12--15--14--7s^(8)-7~-0---12--15--14--77s^(8)-7~~~--|

[E] [G] [A] [(E)] [A] [D] [D] [E] [E] [G] [A] [(E)] [A] [D] [D] [E]  
 
 ----------------------------------------------------------------------------|
 ----------------------------------------------------------------------------|
 ----------------------------------------------------------------------------|
 ------12---14~s\(9)---------------------------12---14~s\(9)-----------------|
 -14---10---12~s\(7)--9---12--12--14------14---10---12~s\(7)--9---12--12--14-|
 -12------------------7---10--10--12------12------------------7---10--10--12-|

You don't know just where I want to go. Acid burns a hole right through my soul
[E] [G] [A] [(E)] [A] [D] [D] [E] [E] [G] [A] [(E)] [A] [D] [D] [E]  
 
 ----------------------------------------------------------------------------|
 ----------------------------------------------------------------------------|
 ----------------------------------------------------------------------------|
 ------12---14~s\(9)---------------------------12---14~s\(9)-----------------|
 -14---10---12~s\(7)--9---12--12--14------14---10---12~s\(7)--9---12--12--14-|
 -12------------------7---10--10--12------12------------------7---10--10--12-|

Black Oblivion, my long lost friend. Lord forgive me for I have sinned
E E E F/G# E E F/G#E F/G# E E F/G# A#~
 
 ---------------------------------------|
 ---------------------------------------|
 ---------------------------------------|
 ---------------------------------------|
 -2--2-2-3/6-2-2-3/6-2-3/6--2-2-3/6/8~--|
 -0--0-0-1/4-0-0-1/4-0-1/4--0-0-1/4/6~--|

Time (Echoplex)
E E E F/G# E E F/G#E F/G# E E F/G# A#~
 
 ---------------------------------------|
 ---------------------------------------|
 ---------------------------------------|
 ---------------------------------------|
 -2--2-2-3/6-2-2-3/6-2-3/6--2-2-3/6/8~--|
 -0--0-0-1/4-0-0-1/4-0-1/4--0-0-1/4/6~--|

Now (Echoplex)
E E E F/G# E E F/G#E F/G# E E F/G# A#~
 
 ---------------------------------------|
 ---------------------------------------|
 ---------------------------------------|
 ---------------------------------------|
 -2--2-2-3/6-2-2-3/6-2-3/6--2-2-3/6/8~--|
 -0--0-0-1/4-0-0-1/4-0-1/4--0-0-1/4/6~--|

Time (Echoplex)
E E E F/G# E E F/G#E F/G# E E F/G# A#~
 
 ---------------------------------------|
 ---------------------------------------|
 ---------------------------------------|
 ---------------------------------------|
 -2--2-2-3/6-2-2-3/6-2-3/6--2-2-3/6/8~--|
 -0--0-0-1/4-0-0-1/4-0-1/4--0-0-1/4/6~--|

Now! (Echoplex)
[E] [G] [F#] [E] [G] [F#]  
 
 -----------------------------------------------------|
 -----------------------------------------------------|
 -----------------------------------------------------|
 -----------------------------------------------------|
 -14--17--16----------------14--17--16----------------|
 -12--15--14--7s^(8)-7~-0---12--15--14--77s^(8)-7~~~--|

[E] [G] [F#] [E] [G] [F#]  
 
 -----------------------------------------------------|
 -----------------------------------------------------|
 -----------------------------------------------------|
 -----------------------------------------------------|
 -14--17--16----------------14--17--16----------------|
 -12--15--14--7s^(8)-7~-0---12--15--14--77s^(8)-7~~~--|
 -(3)/7~~~--7p5-5-7-7~-------------5-----------------------|
 --------------8-------8^(10`8)-5-8-5~---------------------|
 --------------------------------------7ss^(9~)------------|
 -----------------------------------------------7-5--------|
 --------------------------------------------------7-------|
 ----------------------------------------------------5-----|

E E G G/A A(\E)
 
 ---------------------------------------------|
 ---------------------------------------------|
 ---------------------------------------------|
 -9-9--(xx)--12-12/14-14(\9)------------------|
 -7-7--(xx)--10-10/12-12(\7)--5--5------------|
 -0-0--(xx)------------------7--7--5-3p0------|

E E G G/A A(\E)
 
 ---------------------------------------------|
 ---------------------------------------------|
 ---------------------------------------------|
 -9-9--(xx)--12-12/14-14(\9)--------5---------|
 -7-7--(xx)--10-10/12-12(\7)--5--5h7--7-------|
 -0-0--(xx)------------------7--7-------------|

 
 -12-10---12~~--12p10-----10----------------------------------------------|
 ------12------------12-12---12~-(10)------------10-12--------------------|
 ------------------------------------12^((14s`12)-----9~~-----------------|
 ---------------------------------------------------------9-7-------------|
 ------------------------------------------------------------7-(Let ride)-|
 -------------------------------------------------------------------------|

E E G G/A A(\E)
 
 ---------------------------------------------|
 ---------------------------------------------|
 ---------------------------------------------|
 -9-9--(xx)--12-12/14-14(\9)------------------|
 -7-7--(xx)--10-10/12-12(\7)--5--5------------|
 -0-0--(xx)------------------7--7--5-3p0------|

E E G G/A A(\E)
 
 ---------------------------------------------|
 ---------------------------------------------|
 ---------------------------------------------|
 -9-9--(xx)--12-12/14-14(\9)--------5---------|
 -7-7--(xx)--10-10/12-12(\7)--5--5h7--7-------|
 -0-0--(xx)------------------7--7-------------|

BRIDGE
 
 -----7-8--------------7-8--------------77-8--------------7-8----------|
 ---11----11-11------11----11-11------11-----11-11------11----11-11----|
 --9--------9--9----9--------9--9----9---------9--9----9--------9--9---|
 ----------------------------------------------------------------------|
 ----------------------------------------------------------------------|
 ----------------------------------------------------------------------|

 
 ------12-13-----------------12-13-----------------12-13-----------------12----|
 ----16-----16---16--------16-----16---166-------16-----16---16--------16------|
 --14---------14---14----14---------14----14---14---------14---14----14--------|
 ------------------------------------------------------------------------------|
 ------------------------------------------------------------------------------|
 ------------------------------------------------------------------------------|

(p)
 
 -----14-15---------------14-15---------------|
 ---18-----18---18------18-----18---18--------|
 -15---------15---15--15---------15---15---13-|
 ------------------------------------------14-|
 ------------------------------------------14-|
 ------------------------------------------12-|(let ride)
 -----------------------------------------------------12-12~-12p10-----|
 --------------10p8p7-7--------8--------110p8p7-7~-7--------------12---|
 --------------------9-9~~~-7h9----------------9----9------------------|
 ----------------------------------------------------------------------|
 ----------------------------------------------------------------------|
 ----------------------------------------------------------------------|

(NOTE: First 4 count rhythm part of Guitar 2 before Guitar 1 comes in)
(p)
[F#] [E] [F#] [E]  
 
 ---------------------------------------------|
 ---------------------------------------------|
 -15-----13-------------15-----13-------------|
 -16-----14-------------16-----14-------------|
 -16-----14-------5~----16-----14-------55~---|
 -14-----12---3s/5-3----14-----12---3s/5--3---|

(soft strum) (soft strum)
 
 ---12---15^(17)-12--12-12~----------------------------------------------------|
 -15--15-----------15------15p12-----------------------------------------------|
 -------------------------------14-12--144^(16)-14-12--------------------------|
 ------------------------------------14--------------14-14p12------------------|
 ------------------------------------------------------------1412\10-12^(14)---|
 ------------------------------------------------------------------------------|

[F#] [E] [F#] [E]  
 
 ---------------------------------------------|
 ---------------------------------------------|
 -15-----13-------------15-----13-------------|
 -16-----14-------------16-----14-------------|
 -16-----14-------5~----16-----14-------55~---|
 -14-----12---3s/5-3----14-----12---3s/5--3---|

(soft strum) (soft strum)
 
 ----------------------(10)/12-15-17^(19~~~)/(22)----|
 -12~~\(9)------(12)/15------------------------------|
 -12~~\(9)-------------------------------------------|
 -12~~\(9)-------------------------------------------|
 ----------------------------------------------------|
 ----------------------------------------------------|

[F#] [E] [F#] [E]  
 
 ---------------------------------------------|
 ---------------------------------------------|
 -15-----13-------------15-----13-------------|
 -16-----14-------------16-----14-------------|
 -16-----14-------5~----16-----14-------55~---|
 -14-----12---3s/5-3----14-----12---3s/5--3---|

(soft strum) (soft strum)
 
 -----7-10---------------------------------------------------------------|
 --10-----8p7-10p8p7----------------------10~------10~---10~------9-9~~--|
 -------------------9--7-9^(11`9)-7~--12-----(9)/12----12---10p6p5-------|
 ------------------------------------------------------------------------|
 ------------------------------------------------------------------------|
 ------------------------------------------------------------------------|

[F#] [E] [F#] [E]  
 
 ---------------------------------------------|
 ---------------------------------------------|
 -15-----13-------------15-----13-------------|
 -16-----14-------------16-----14-------------|
 -16-----14-------5~----16-----14-------55~---|
 -14-----12---3s/5-3----14-----12---3s/5--3---|

(soft strum) (soft strum)
 
 --------------------------12-12-15^(17-117~)-12-12-14-15^(17)-12~-12p10-------|
 --------8p7-9/12-12~/15--------------------------------------12-10\7/10-12~~--|
 ----9~--9-7-------------------------------------------------------------------|
 -7h9--------------------------------------------------------------------------|
 ------------------------------------------------------------------------------|
 ------------------------------------------------------------------------------|Guitar 1}

[F#] [E] [F#] [E]  
 
 ---------------------------------------------|
 ---------------------------------------------|
 -15-----13-------------15-----13-------------|
 -16-----14-------------16-----14-------------|
 -16-----14-------5~----16-----14-------55~---|
 -14-----12---3s/5-3----14-----12---3s/5--3---|

(soft strum) (soft strum)
 
 ---10---------------7------------------------12---12p10-12~--12p10-12~-12p10--|
 -10--10^(12`10)-8-10--10^(12s`10)-8-8~\((5)-----------------------------------|
 ------------------------------------------------------------------------------|
 ------------------------------------------------------------------------------|
 ------------------------------------------------------------------------------|
 ------------------------------------------------------------------------------|

[F#] [E] [F#] [E]  
 
 ---------------------------------------------|
 ---------------------------------------------|
 -15-----13-------------15-----13-------------|
 -16-----14-------------16-----14-------------|
 -16-----14-------5~----16-----14-------55~---|
 -14-----12---3s/5-3----14-----12---3s/5--3---|

(soft strum) (soft strum)
 
 -12~~-10--10-12--------------------7~~~~~~~~~~(feedback)s\(3)---|
 --------12-----8~~~------------8h10-----------------------------|
 -------------------9-7--9-7-------------------------------------|
 ----------------------7~---9-7----------------------------------|
 ----------------------------------------------------------------|
 ----------------------------------------------------------------|

[F#] [E] [F#] [E]  
 
 ---------------------------------------------|
 ---------------------------------------------|
 -15-----13-------------15-----13-------------|
 -16-----14-------------16-----14-------------|
 -16-----14-------5~----16-----14-------55~---|
 -14-----12---3s/5-3----14-----12---3s/5--3---|

(soft strum) (soft strum)
 
 -------------------------------------------------------------|
 -x-----------------------------------------------------------|
 -x------------------------------------------12-12------------|
 -x---12-14^(14.5~)--12-14^(14.5~)-12-12--14------14~~~~~~----|
 -------------------------------------------------------------|
 -------------------------------------------------------------|

[F#] [E] [F#] [E]  
 
 ---------------------------------------------|
 ---------------------------------------------|
 -15-----13-------------15-----13-------------|
 -16-----14-------------16-----14-------------|
 -16-----14-------5~----16-----14-------55~---|
 -14-----12---3s/5-3----14-----12---3s/5--3---|

(soft strum) (soft strum)
 
 ----------------7-10p9p7----------------------------|
 -10p8p7-7-10-7-7--------10-7^(8)--------------------|
 -------9------9-----------------9-9-7-7-------------|
 -----------------------------------9---99-7-9-------|
 ---------------------------------------------7~-----|
 ----------------------------------------------------|

[F#] [E] [F#] [E]  
 
 ---------------------------------------------|
 ---------------------------------------------|
 -15-----13-------------15-----13-------------|
 -16-----14-------------16-----14-------------|
 -16-----14-------5~----16-----14-------55~---|
 -14-----12---3s/5-3----14-----12---3s/5--3---|

(soft strum) (soft strum)
 
 ------12^(14`12)-10-12-12~--------------------------|
 ---10---------------------12p11p9----10--8----------|
 --10-----------------------------12-9-----9~~~~~----|
 -10-------------------------------------------------|
 ----------------------------------------------------|
 ----------------------------------------------------|

[F#] [E] [F#] [E]  
 
 ---------------------------------------------|
 ---------------------------------------------|
 -15-----13-------------15-----13-------------|
 -16-----14-------------16-----14-------------|
 -16-----14-------5~----16-----14-------55~---|
 -14-----12---3s/5-3----14-----12---3s/5--3---|

(soft strum) (soft strum)
 
 -----------------------------------------------------|
 -8-8-8p5-8p5-----------------------------------------|
 --------7---7/9-9p7-7-9p7-7--------------------------|
 -------------------9-----9-9-7-5/9-7-5-((let fade)---|
 -----------------------------------------------------|
 -----------------------------------------------------|

[F#] [E] [F#] [E]  
 
 --------------------------------------|
 --------------------------------------|
 -15-----13-------------15-----13------|
 -16-----14-------------16-----14------|
 -16-----14-------5~----16-----14------|
 -14-----12---3s/5-3----14-----12------|

(soft strum) (soft strum)

Important: The song above is NOT stored on the Chordie server. The original song is hosted at www.guitaretab.com. Chordie works as a search engine and provides on-the-fly formatting. Chordie does not index songs against artists'/composers' will. To remove this song please click here.

Text color:
Chord color:
Chord grids: 
Font size:    
Page size: 

A D E F# G
Rate #1 of 4 versions

Jango Player

Login - add to songbook

SHARE PAGE  



You need to log in to post comments