Guitar Tabs, Chords and Lyrics
Major upgrade!! After one year development the new version of Chordie is now online! Please give feedback.


Afraid of Love  Toto

AFRAID OF LOVE By FIN4L
It's my first tab. Enjoy :)
R.I.P. Toto (f) :(
Intro:
x3 x17
 
 e|------------|----------0-|--------|----------------0-|
 B|--5-4--2-0--|----------0-|--------|----------------0-|
 G|--4-4--4-4--|--2-1-----1-|--------|----------------1-|
 D|------------|------4-2-2-|--2(x)--|--2-1-----------2-|
 A|------------|----------2-|--2(x)--|-----4-2--------2-|
 E|------------|----------0-|--0(x)--|--------5-4-2-0-0-|

Riff 1a:
x17
 
 e|--------|
 B|--------|
 G|--------|

D|--2(x)--|
A|--2(x)--|
E|--0(x)--|
[E]You stole my heart the moment you came to town
 
 e|-----------------0-0-0-|
 B|-----------------0-0-0-|
 G|-----------------1-1-1-|
 D|--2-1------------2-2-2-|
 A|------4-2--------2-2-2-|
 E|---------5-4-2-0-0-0-0-|

Riff 1b:
x15
 
 e|--------|
 B|--------|
 G|--------|

D|--2(x)--|
A|--2(x)--|
E|--0(x)--|
[E]I said hello but you were gone when I turned around
 
 e|------------------0-|
 B|------------------2-|
 G|------------------2-|
 D|--2-1-------------2-|
 A|------4-2---------0-|
 E|----------5-4-2-0-0-|

Riff 1c:
x17
 
 e|--------|-----------------0-|
 B|--------|-----------------0-|
 G|--2(x)--|--2-1------------1-|
 D|--2(x)--|-----4-2---------2-|
 A|--0(x)--|---------5-4-2-0-2-|
 E|--------|-----------------0-|

[A]You cant get away, cant get away, even if you try now
 
 e|-----------------0-0-0-|
 B|-----------------0-0-0-|
 G|--2-1------------1-1-1-|
 D|-----4-2---------2-2-2-|
 A|---------5-4-2-0-2-2-2-|
 E|-----------------0-0-0-|

Riff 1d:
x15
 
 e|--------|--------------------|
 B|--------|--------------------|
 G|--------|--------------------|
 D|--2(x)--|--2-1-------------4-|
 A|--2(x)--|------4-2---------4-|
 E|--0(x)--|----------5-4-2-0-2-|

[E]I wanna tell you but the words just cant be found
 
 e|------------------|
 B|------------------|
 G|------------------|
 D|--2-1-------------|
 A|------4-2---------|
 E|----------5-4-2-0-|

Chorus Instrumental:
 
 e|-----------------------------------------------------0-|
 B|----------------------------5-5-5--------------------0-|
 G|----------------------------4-4-4--------------------1-|
 D|-4--------------------------2-2-2---2-1--------------2-|
 A|-4-----0-4-2-----------------------------4-2---------2-|
 E|-2---2---------------------------------------5-4-2-0-0-|

Riff 2 a b c d:
[E]I like the way you move and just the way you are
[E]I cant take anymore, cos girl, youre pushin too hard
[A]You cant get away, cant let you go, whats a boy to do now
[E]You got me askin myself how I survived this far
Chorus:
 
 e|-------------|
 B|-------------|
 G|-------------|
 D|-4-----------|
 A|-4-----0-4-2-|
 E|-2---2-------|

[E]I gotta get away from you, girl
 
 e|------------------------------------------|
 B|------------------------------------------|
 G|--6-6------4-4------2--------------6----4-|
 D|--6-6------4-4------2----2----4----6----4-|
 A|--4-4------2-2------0----2----4----4----2-|
 E|-------------------------0----2-----------|

cos Ive never been afraid of love til I met you
 
 e|------------------------------------------|
 B|------------------------------------------|
 G|--6-6------4-4------2--------------6----4-|
 D|--6-6------4-4------2----2----4----6----4-|
 A|--4-4------2-2------0----2----4----4----2-|
 E|-------------------------0----2-----------|

Never thought a girl could make me feel the way you do
 
 e|------------------------------------------|
 B|------------------------------------------|
 G|--6-6------4-4------2--------------6----4-|
 D|--6-6------4-4------2----2----4----6----4-|
 A|--4-4------2-2------0----2----4----4----2-|
 E|-------------------------0----2-----------|

Never been afraid of - never been afraid of love til I met you
Ooh, yes you say
(Instrumental Break):
x4 x4
 
 e|-----------|-----------|--------------------------------------|
 B|-5-5---5-5-|-3-3---3-3-|--------------------------------------|
 G|-4-4---4-4-|-4-4---4-4-|-----------2----4------7-6-4-2--------|
 D|-----------|-----------|-2----5----2----4------7-6-4-2-6-4-2--|
 A|-----------|-----------|-2----5----0----2------5-4-2-0-6-4-2--|
 E|-----------|-----------|-0----3------------------------4-2-0--|

Intro
Riff 3:
[E]Cant be something that you never ever had
[E]When I stop and think about you, it makes me laugh
[A]You took me by surprise, I saw it in your eyes, I never had a chance, girl
[E]Now that I see what you are, it doesnt hurt so bad
Chorus:
[E]I gotta get away from you, [G#m7]girl
[E]cos Ive never been afraid of [A]love til [G#m7]I met you
[E]Never thought a girl could make me feel [A]the way you[G#m7] do
[E]Never been afraid o[A]f - [E]never been afraid of love [A]til I met[G#m7] you
[C#m]Ooh, yes you say

Important: The song above is NOT stored on the Chordie server. The original song is hosted at www.guitaretab.com. Chordie works as a search engine and provides on-the-fly formatting. Chordie does not index songs against artists'/composers' will. To remove this song please click here.

Text color:
Chord color:
Chord grids: 
Font size:    
Page size: 

A C#m E G#m7
Rate #3 of 3 versions

Login - add to songbook

SHARE PAGE  




You need to log in to post comments