Guitar Tabs, Chords and Lyrics
Server problems seems to be fixed. Chordie has been experiencing problems with songs disappearing. These issues now seems to be fixed, but still verifying the fix. If you find anything strange, please email admin@chordie.com.


Rita's Innocent  The Toy Dolls

Acoustic Intro:
 
 1:--4------------------------------------|
 2:----5--------5---------------5---------|
 3:------6----6---6-------6-------6-------|
 4:--------6--6-----6---9---7-------7-----|
 5:---------------------0-----7-------7~--|
 6:---------------------------------------|
 1:--0---------------------------------------4--------4--|
 2:-----0-------0-------0----------------------4------4--|
 3:--------1------1-------1---------------1------5----5--|
 4:-----------2-----2-------2----------2-----------6--6--|
 5:-------------------2-------2-----2-----------------6--|
 6:------------------------------0-----------------------|
 1:--4---------------------9------|
 2:----5--------5-----------------|
 3:------6----6---6----6-9---9-6--|
 4:--------6--6-----6--7-7---7-7--|
 5:-------------------------------|
 6:-------------------------------|
 1:--7----------7-------7----------------4-----------|
 2:-----7---------7-------7-----7----------5---------|
 3:--------8--------8-------8-----8----------6----6--|
 4:-----------9-------9-------9-----9----------6--6--|
 5:-----------------------------------------------4--|
 6:-----------------------------------7--------------|

Verse:
[C#] [A] [E] [G#]  
 
 P.M.------------------------------------------------------------|
 1:-------------------------------------------------------------------|
 2:-------------------------------------------------------------------|
 3:-------------------------------------------------------------------|
 4:--6-6-6-6-6-6-6-6--------------------------------------------------|
 5:--4-4-4-4-4-4-4-4-7-7-7-7-7-7-7-7-2-2-2-2-2-2-2-2-2-2-2-2-6-6-6-6--|
 6:------------------5-5-5-5-5-5-5-5-0-0-0-0-0-0-0-0-0-0-0-0-4-4-4-4--|

[C#] [A] [E]  
 
 P.M.------------------------------------------------------------|
 1:-------------------------------------------------------------------|
 2:-------------------------------------------------------------------|
 3:-------------------------------------------------------------------|
 4:--6-6-6-6-6-6-6-6--------------------------------------------------|
 5:--4-4-4-4-4-4-4-4-7-7-7-7-7-7-7-7-2-2-2-2-2-2-2-2-2-2-2-2-2-2-2-2--|
 6:------------------5-5-5-5-5-5-5-5-0-0-0-0-0-0-0-0-0-0-0-0-0-0-0-0--|

Repeat both riffs
[E] [B] [A] [B]  
 
 1:---------------------------------------------------------------|
 2:---------------------------------------------------------------|
 3:---------------------------------------------------------------|
 4:-2-2-2-2-2-2-2-2-9-9-9-9-9-9-9-9-7-7-7-7-7-7-7-7-7-7-7-7-7--9--|
 5:-2-2-2-2-2-2-2-2-9-9-9-9-9-9-9-9-7-7-7-7-7-7-7-7-7-7-7-7-7--9--|
 6:-0-0-0-0-0-0-0-0-7-7-7-7-7-7-7-7-5-5-5-5-5-5-5-5-5-5-5-5-5--7--|

[E] [B] [C] [B]  
 
 1:---------------------------------------------------------------|
 2:---------------------------------------------------------------|
 3:---------------------------------5-5-5-5-5-5-5-5-5-5-5-5-5--4--|
 4:-2-2-2-2-2-2-2-2-9-9-9-9-9-9-9-9-5-5-5-5-5-5-5-5-5-5-5-5-5--4--|
 5:-2-2-2-2-2-2-2-2-9-9-9-9-9-9-9-9-3-3-3-3-3-3-3-3-3-3-3-3-3--2--|
 6:-0-0-0-0-0-0-0-0-7-7-7-7-7-7-7-7-------------------------------|

[C#] [A] [E] [G#]  
 
 P.M.------------------------------------------------------------|
 1:-------------------------------------------------------------------|
 2:-------------------------------------------------------------------|
 3:-------------------------------------------------------------------|
 4:--6-6-6-6-6-6-6-6--------------------------------------------------|
 5:--4-4-4-4-4-4-4-4-7-7-7-7-7-7-7-7-2-2-2-2-2-2-2-2-2-2-2-2-6-6-6-6--|
 6:------------------5-5-5-5-5-5-5-5-0-0-0-0-0-0-0-0-0-0-0-0-4-4-4-4--|

[C#] [A] [E]  
 
 P.M.------------------------------------------------------------|
 1:-------------------------------------------------------------------|
 2:-------------------------------------------------------------------|
 3:-------------------------------------------------------------------|
 4:--6-6-6-6-6-6-6-6--------------------------------------------------|
 5:--4-4-4-4-4-4-4-4-7-7-7-7-7-7-7-7-2-2-2-2-2-2-2-2-2-2-2-2-2-2-2-2--|
 6:------------------5-5-5-5-5-5-5-5-0-0-0-0-0-0-0-0-0-0-0-0-0-0-0-0--|

[E] [B] [A] [B]  
 
 1:---------------------------------------------------------------|
 2:---------------------------------------------------------------|
 3:---------------------------------------------------------------|
 4:-2-2-2-2-2-2-2-2-9-9-9-9-9-9-9-9-7-7-7-7-7-7-7-7-7-7-7-7-7--9--| (x3)
 5:-2-2-2-2-2-2-2-2-9-9-9-9-9-9-9-9-7-7-7-7-7-7-7-7-7-7-7-7-7--9--|
 6:-0-0-0-0-0-0-0-0-7-7-7-7-7-7-7-7-5-5-5-5-5-5-5-5-5-5-5-5-5--7--|

[E] [B] [C]  
 
 1:----------------------------------------------------------------|
 2:----------------------------------------------------------------|
 3:---------------------------------5-5-5-5-5-5-5-5-5-5-5-5-5-5-5--|
 4:-2-2-2-2-2-2-2-2-9-9-9-9-9-9-9-9-5-5-5-5-5-5-5-5-5-5-5-5-5-5-5--|
 5:-2-2-2-2-2-2-2-2-9-9-9-9-9-9-9-9-3-3-3-3-3-3-3-3-3-3-3-3-3-3-3--|
 6:-0-0-0-0-0-0-0-0-7-7-7-7-7-7-7-7--------------------------------|

Chorus:
[A]  
 
 1:-------------------------------------------------------------------|
 2:-------------------------------------------------------------------|
 3:-------------------------------------------------------------------|
 4:--7-7-7-7-7-7-7-7-7-7-7-7-7-7-7-7-7-7-7-7-7-7-7-7-7-7-7-7-7-7-7-7--|
 5:--7-7-7-7-7-7-7-7-7-7-7-7-7-7-7-7-7-7-7-7-7-7-7-7-7-7-7-7-7-7-7-7--|
 6:--5-5-5-5-5-5-5-5-5-5-5-5-5-5-5-5-5-5-5-5-5-5-5-5-5-5-5-5-5-5-5-5--|

[F] [B]  
 
 1:-----------------------------------------------------|
 2:--6-6-6-6-6-6-6-6-6-6-6-6-6-6-6-6--------------------|
 3:--5-5-5-5-5-5-5-5-5-5-5-5-5-5-5-5-4-4-4-4-4-4-4-4-4--|
 4:--3-3-3-3-3-3-3-3-3-3-3-3-3-3-3-3-4-4-4-4-4-4-4-4-4--|
 5:----------------------------------2-2-2-2-2-2-2-2-2--|
 6:-----------------------------------------------------|

Verse 2:
[C#] [A] [E] [G#]  
 
 P.M.------------------------------------------------------------|
 1:-------------------------------------------------------------------|
 2:-------------------------------------------------------------------|
 3:-------------------------------------------------------------------|
 4:--6-6-6-6-6-6-6-6--------------------------------------------------|
 5:--4-4-4-4-4-4-4-4-7-7-7-7-7-7-7-7-2-2-2-2-2-2-2-2-2-2-2-2-6-6-6-6--|
 6:------------------5-5-5-5-5-5-5-5-0-0-0-0-0-0-0-0-0-0-0-0-4-4-4-4--|

[C#] [A] [E]  
 
 P.M.------------------------------------------------------------|
 1:-------------------------------------------------------------------|
 2:-------------------------------------------------------------------|
 3:-------------------------------------------------------------------|
 4:--6-6-6-6-6-6-6-6--------------------------------------------------|
 5:--4-4-4-4-4-4-4-4-7-7-7-7-7-7-7-7-2-2-2-2-2-2-2-2-2-2-2-2-2-2-2-2--|
 6:------------------5-5-5-5-5-5-5-5-0-0-0-0-0-0-0-0-0-0-0-0-0-0-0-0--|

[E] [B] [A] [B]  
 
 1:---------------------------------------------------------------|
 2:---------------------------------------------------------------|
 3:---------------------------------------------------------------|
 4:-2-2-2-2-2-2-2-2-9-9-9-9-9-9-9-9-7-7-7-7-7-7-7-7-7-7-7-7-7--9--|
 5:-2-2-2-2-2-2-2-2-9-9-9-9-9-9-9-9-7-7-7-7-7-7-7-7-7-7-7-7-7--9--|
 6:-0-0-0-0-0-0-0-0-7-7-7-7-7-7-7-7-5-5-5-5-5-5-5-5-5-5-5-5-5--7--|

[E] [B] [C]  
 
 1:----------------------------------------------------------------|
 2:----------------------------------------------------------------|
 3:---------------------------------5-5-5-5-5-5-5-5-5-5-5-5-5-5-5--|
 4:-2-2-2-2-2-2-2-2-9-9-9-9-9-9-9-9-5-5-5-5-5-5-5-5-5-5-5-5-5-5-5--|
 5:-2-2-2-2-2-2-2-2-9-9-9-9-9-9-9-9-3-3-3-3-3-3-3-3-3-3-3-3-3-3-3--|
 6:-0-0-0-0-0-0-0-0-7-7-7-7-7-7-7-7--------------------------------|

Chorus 2:
[A]  
 
 1:-------------------------------------------------------------------|
 2:-------------------------------------------------------------------|
 3:-------------------------------------------------------------------|
 4:--7-7-7-7-7-7-7-7-7-7-7-7-7-7-7-7-7-7-7-7-7-7-7-7-7-7-7-7-7-7-7-7--|
 5:--7-7-7-7-7-7-7-7-7-7-7-7-7-7-7-7-7-7-7-7-7-7-7-7-7-7-7-7-7-7-7-7--|
 6:--5-5-5-5-5-5-5-5-5-5-5-5-5-5-5-5-5-5-5-5-5-5-5-5-5-5-5-5-5-5-5-5--|

[F] [A]  
 
 1:-------------------------------------------------------------------|
 2:--6-6-6-6-6-6-6-6-6-6-6-6-6-6-6-6----------------------------------|
 3:--5-5-5-5-5-5-5-5-5-5-5-5-5-5-5-5-2-2-2-2-2-2-2-2-2-2-2-2-2-2-2-2--|
 4:--3-3-3-3-3-3-3-3-3-3-3-3-3-3-3-3-2-2-2-2-2-2-2-2-2-2-2-2-2-2-2-2--|
 5:----------------------------------0-0-0-0-0-0-0-0-0-0-0-0-0-0-0-0--|
 6:-------------------------------------------------------------------|

Solo:
Do a pick slide
[F] [A] [F] [A] [G] [C] [G] [C]  
 
 1:------------------------------------------------------------------------|
 2:------------------------------------------------------------------------|
 3:-------------------------5b7~-7b9~-8b10~-10b12~-5b7~-7b9~-8b10~-10b12~--|
 4:------------------------------------------------------------------------|
 5:--0-3-8-7-----0-3-8-7---------------------------------------------------|
 6:------------------------------------------------------------------------|

Chorus 3:
[A]  
 
 1:-------------------------------------------------------------------|
 2:-------------------------------------------------------------------|
 3:-------------------------------------------------------------------|
 4:--7-7-7-7-7-7-7-7-7-7-7-7-7-7-7-7-7-7-7-7-7-7-7-7-7-7-7-7-7-7-7-7--|
 5:--7-7-7-7-7-7-7-7-7-7-7-7-7-7-7-7-7-7-7-7-7-7-7-7-7-7-7-7-7-7-7-7--|
 6:--5-5-5-5-5-5-5-5-5-5-5-5-5-5-5-5-5-5-5-5-5-5-5-5-5-5-5-5-5-5-5-5--|
 F B P.M.------------|
 1:-------------------------------------------------------------------|
 2:--6-6-6-6-6-6-6-6-6-6-6-6-6-6-6-6----------------------------------|
 3:--5-5-5-5-5-5-5-5-5-5-5-5-5-5-5-5-4-4-4-4-4-4-4-4------------------|
 4:--3-3-3-3-3-3-3-3-3-3-3-3-3-3-3-3-4-4-4-4-4-4-4-4------------------|
 5:----------------------------------2-2-2-2-2-2-2-2-6-5---6-5---6-5--|
 6:------------------------------------------------------7-----7------|

[A]  
 
 1:-------------------------------------------------------------------|
 2:-------------------------------------------------------------------|
 3:-------------------------------------------------------------------|
 4:--7-7-7-7-7-7-7-7-7-7-7-7-7-7-7-7-7-7-7-7-7-7-7-7-7-7-7-7-7-7-7-7--|
 5:--7-7-7-7-7-7-7-7-7-7-7-7-7-7-7-7-7-7-7-7-7-7-7-7-7-7-7-7-7-7-7-7--|
 6:--5-5-5-5-5-5-5-5-5-5-5-5-5-5-5-5-5-5-5-5-5-5-5-5-5-5-5-5-5-5-5-5--|

[F] [B]  
 
 1:-----------------------------------------------------|
 2:--6-6-6-6-6-6-6-6-6-6-6-6-6-6-6-6--------------------|
 3:--5-5-5-5-5-5-5-5-5-5-5-5-5-5-5-5-4-4-4-4-4-4-4-4-4--|
 4:--3-3-3-3-3-3-3-3-3-3-3-3-3-3-3-3-4-4-4-4-4-4-4-4-4--|
 5:----------------------------------2-2-2-2-2-2-2-2-2--|
 6:-----------------------------------------------------|

Ending:
[C#] [A] [E] [C#m]  
 
 P.M.-------------------------------------------|
 1:---------------------------------------------------4--|
 2:---------------------------------------------------5--|
 3:---------------------------------------------------6--|
 4:--6-6-6-6-6-6-6-6----------------------------------6--|
 5:--4-4-4-4-4-4-4-4-7-7-7-7-7-7-7-7-2-2-2-2-2-2-2-2--4--|
 6:------------------5-5-5-5-5-5-5-5-0-0-0-0-0-0-0-0-----|

Any corrections or comments please send to: shurik666@inbox.ru

Important: The song above is NOT stored on the Chordie server. The original song is hosted at www.guitaretab.com. Chordie works as a search engine and provides on-the-fly formatting. Chordie does not index songs against artists'/composers' will. To remove this song please click here.

Text color:
Chord color:
Chord grids: 
Font size:    
Page size: 

A B C C# C#m E F G G#
Rate #2 of 2 versions

Login - add to songbook

SHARE PAGE  



You need to log in to post comments