Guitar Tabs, Chords and Lyrics
Major upgrade!! After one year development the new version of Chordie is now online! Please give feedback.


Heaven Is a Better Place Today  The Tragically Hip

 
 -------------------------------------------------------------------------------

Heaven is a Better Place Today - The Tragically Hip
 
 -------------------------------------------------------------------------------

Album: In Between Evolution (2004)
Tabbed by: Rick West
Tuning: EADGBe
Intro:
[C] [C] [C] [C]  
 
 e|-------------------------------|
 B|-------------------------------|
 G|-------------------------------|
 D|-----9-------9-------9-------9-|
 A|-----9-------9-------9-------9-|
 E|-8-8-8---8-8-8---8-8-8---8-8-8-|

[C] Here's a glue guy[C], a performance god,
[B] a makeshift shrine[B], newly laid sod,
[F] hardly even trying[F], gives the nod.[C] [C]
[F]I sure hope [E]I am [D]not the type to [E]dwell,
[F]hope I'm [E]a fast [D]healer, fast as [E]hell.
[F]Heaven [E]is a [D]better place [E]today because of this.
[C]But the [B]world [A]is just not the [G]same.
[B]If and when you [C]get into that [D]endz[C]one
[B]act like you've [C]been there a [E]thousand times [F]before.
[G]Don't blame. Don't say people lose people all [C]the time anymore.[C]
[C] A toonie to the busker and a [C]husky 'keep it comin' under [B]my breath,
but [B]then said, 'though, if you wouldn't [F]mind,
[F]less crying and more trying[C],
[C]more trying and less crying'.
[F]I'[E]m [D]not the type to [E]dwell.
[F]I'm a [E]fast [D]healer [C]fast as [G]hell.
[F]Heaven [E]is a [D]better place [E]today because of this,
[C]but [B]the world [A]is just not the [G]same.
[B]If and when you [C]get into that [D]endzon[C]e
[B]act like you've [C]been there a [E]thousand times [F]before.
[G]Don't blame and don't say people lose people all the time anymore.
Solo:
[C] [C] [B] [B] [F] [F]  
 
 e|-------------------------------------------------------------------------------|
 B|-13--13--13--15-13----13-15--12--12--12--15-12--12-15--13-----------13---------|
 G|---12--12----------12----------11--11---------11---------12-14-12-14--12-14-12-|
 D|-------------------------------------------------------------------------------|
 A|-------------------------------------------------------------------------------|
 E|-------------------------------------------------------------------------------|

[C] [B] [A] [G]  
 
 e|----------------|
 B|----------------|
 G|---------666--4-|
 D|-10-9--7-777--5-|
 A|-10-9--7-777--5-|
 E|-8--7--5-555--3-|

[B]If and when you [C]get into that [D]endzon[C]e
[C]act like you've been there a [E]thousand times [F]before.
[G]Don't blame and don't say people lose people all the time anymore.
F E D C (x4)
************************************
| / slide up
| \ slide down
| h hammer-on
| p pull-off
| ~ vibrato
| + harmonic
| x Mute note
| b Bend
| pb Pre-bend
| br Bend release
| pbr Pre-bend release
| brb Bend release bend
************************************

Important: The song above is NOT stored on the Chordie server. The original song is hosted at www.guitaretab.com. Chordie works as a search engine and provides on-the-fly formatting. Chordie does not index songs against artists'/composers' will. To remove this song please click here.

Text color:
Chord color:
Chord grids: 
Font size:    
Page size: 

A B C D E F G
Rate #1 of 3 versions

Login - add to songbook

SHARE PAGE  



You need to log in to post comments