Guitar Tabs, Chords and Lyrics
Major upgrade!! After one year development the new version of Chordie is now online! Please give feedback.


Quite Free  Travis

TRAVIS - - QUITE FREE
Album: Ode to J. Smith
~~~~~
Intro
~~~~~
Bm Bsus2 (x24422)
v ^ v v ^ v ^ ^ v ^ ^ v ^
. . . . . . . .
~~~~~~
Riff 1
~~~~~~
[Bm] [A] [F#m] [G] 
 
 e|----------------------------------------0---------------0-----------|
 B|--------------7-----------------------0-----0-------0-------0-------|
 G|--7-------------6-------------6-/-2-----------2-2/4-----------6-----|
 D|--------------------------------------------------------------------|
 A|--------------------------------------------------------------------|
 E|--------------------------------------------------------------------|

[Bm] [A] [F#m] [G] 
 
 e|----------------5-------5-----5---7-7-5-5---------------------------|
 B|--------------7-------------7---7---------7-7-5---------------------|
 G|--7---------------------------------------------7-------------------|
 D|--------------------------------------------------------------------|
 A|--------------------------------------------------------------------|
 E|--------------------------------------------------------------------|

~~~~~~
Riff 2
~~~~~~
[Bm] [A] [F#m] [G] 
 
 e|----------0-------------0-----------------0-------------0-----------|
 B|------0-------0-----0-------0---0-----0-------0-----0-------0---0---|
 G|--6-------------6-------------6---6-------------6-------------6-----|
 D|--------------------------------------------------------------------|
 A|--------------------------------------------------------------------|
 E|--------------------------------------------------------------------|

~~~~~~~~~~~
Piano Break
~~~~~~~~~~~
Guitar Piano Chords
 
 e|---------------------| e|------0------------------| A G
 B|--7--7--7--7--...----| B|------------3------------|
 G|---------------------| G|--2----------------------|
 D|---------------------| D|-------------------------|
 A|---------------------| A|-------------------------|
 E|---------------------| E|-------------------------|

~~~~~~
Bridge
~~~~~~
[G#m] [G] [Bm] [A] 
 
 e|-------------------------------------------------------------------------------------------|
 B|--12-12-12---12---12-12-12-12---12---12-12-12-12---12---12---12-12-12/10-10/7--7-/5--5-/3--|
 G|-------------------------------------------------------------------------------------------|
 D|--9--9--9----9----9--9--9--9----9----9--9--9--9----9----9----9--9--9-/7--7-/4--4-/2--2-/0--|
 A|-------------------------------------------------------------------------------------------|
 E|-------------------------------------------------------------------------------------------|

the second time just
keep playing --9-12-
~~~~~
Outro
~~~~~
Guitar Chords
 
 e|---------------------| same as Intro
 B|--12-12-12-12-...----|
 G|---------------------|
 D|---------------------|
 A|---------------------|
 E|---------------------|

Tabbed by NintEndO

Important: The song above is NOT stored on the Chordie server. The original song is hosted at www.guitaretab.com. Chordie works as a search engine and provides on-the-fly formatting. Chordie does not index songs against artists'/composers' will. To remove this song please click here.

Text color:
Chord color:
Chord grids: 
Font size:    
Page size: 

A Bm F#m G G#m
Rate #4 of 4 versions

Jango Player

Login - add to songbook

SHARE PAGE  




You need to log in to post comments