Guitar Tabs, Chords and Lyrics
Major upgrade!! After one year development the new version of Chordie is now online! Please give feedback.


Always Feel This Way   Tristan Prettyman

 
 3----x----0
 3----x----0
 0----7----7
 0----7----5
 2----x----7
 3----7----x

 


 


 x----x


 [1----3]0----0 1x


 [2----4]  


 [3----5]x----x


 


 

 
 3----x----0
 3----x----0
 0----7----7
 0----7----5
 2----x----7
 3----7----x

 


 


 x----x


 [1----3]0----0 1x


 [2----4]  


 [3----5]x----x


 


 

 
 3----x----0
 3----x----0
 0----7----7
 0----7----5
 2----x----7
 3----7----x
 x----x----x----3
 0----0----3----3 1x
 7----0----0----0
 7----7----4----0
 x----5----5----2
 7----x----x----3
 x----x----x
 0----0----3
 7----0----0
 7----7----4
 x----5----5
 7----x----x
 3----x----0
 3----x----0
 0----7----7
 0----7----5
 2----x----7
 3----7----x

 


 


 x----x


 [1----3]0----0 1x


 [2----4]  


 [3----5]x----x


 


 

 
 3----x----0
 3----x----0
 0----7----7
 0----7----5
 2----x----7
 3----7----x


Important: The song above is NOT stored on the Chordie server. The original song is hosted at www.guitaretab.com. Chordie works as a search engine and provides on-the-fly formatting. Chordie does not index songs against artists'/composers' will. To remove this song please click here.

This song is displayed as text-only. Transposing and tuning is only available for chordpro-songs.
Rate #2 of 3 versions

Login - add to songbook

SHARE PAGE  



You need to log in to post comments